ISO-10303-21;
HEADER;
FILE_DESCRIPTION (( 'STEP AP203' ),
    '1' );
FILE_NAME ('010-1505E_UVFS_PCV_window.STEP',
    '2021-02-25T13:29:35',
    ( '' ),
    ( '' ),
    'SwSTEP 2.0',
    'SolidWorks 2019',
    '' );
FILE_SCHEMA (( 'CONFIG_CONTROL_DESIGN' ));
ENDSEC;

DATA;
#1 = EDGE_CURVE ( 'NONE', #165, #88, #19, .T. ) ;
#2 = CARTESIAN_POINT ( 'NONE',  ( 0.000000000000000000, 0.000000000000000000, 0.000000000000000000 ) ) ;
#3 = PERSON_AND_ORGANIZATION ( #186, #181 ) ;
#4 = CARTESIAN_POINT ( 'NONE',  ( 9.653566206580250711E-14, 0.000000000000000000, 9.354423230634845154 ) ) ;
#5 = DIRECTION ( 'NONE',  ( 1.000000000000000000, 1.224646799147353207E-16, 0.000000000000000000 ) ) ;
#6 = SECURITY_CLASSIFICATION_LEVEL ( 'unclassified' ) ;
#7 = CARTESIAN_POINT ( 'NONE',  ( 6.591949208711866959E-14, 0.000000000000000000, 10.00000000000000888 ) ) ;
#8 = CC_DESIGN_PERSON_AND_ORGANIZATION_ASSIGNMENT ( #48, #194, ( #36 ) ) ;
#9 = PERSON_AND_ORGANIZATION ( #186, #181 ) ;
#10 = CALENDAR_DATE ( 2021, 25, 2 ) ;
#11 = CYLINDRICAL_SURFACE ( 'NONE', #100, 25.39999999999999858 ) ;
#12 = APPROVAL_DATE_TIME ( #86, #138 ) ;
#13 = ORIENTED_EDGE ( 'NONE', *, *, #122, .T. ) ;
#14 = AXIS2_PLACEMENT_3D ( 'NONE', #124, #192, #189 ) ;
#15 = AXIS2_PLACEMENT_3D ( 'NONE', #56, #176, #178 ) ;
#16 = AXIS2_PLACEMENT_3D ( 'NONE', #117, #29, #129 ) ;
#17 = LOCAL_TIME ( 15, 29, 35.00000000000000000, #109 ) ;
#18 = DIRECTION ( 'NONE',  ( 1.000000000000000000, 0.000000000000000000, 0.000000000000000000 ) ) ;
#19 = CIRCLE ( 'NONE', #184, 500.0000000000000000 ) ;
#20 = EDGE_CURVE ( 'NONE', #165, #51, #172, .T. ) ;
#21 = CALENDAR_DATE ( 2021, 25, 2 ) ;
#22 = CARTESIAN_POINT ( 'NONE',  ( 6.591949208711866959E-14, 0.000000000000000000, 509.3544232306348363 ) ) ;
#23 = LOCAL_TIME ( 15, 29, 35.00000000000000000, #116 ) ;
#24 = PERSON_AND_ORGANIZATION_ROLE ( 'classification_officer' ) ;
#25 = DIRECTION ( 'NONE',  ( 0.000000000000000000, -1.000000000000000000, -0.000000000000000000 ) ) ;
#26 = CARTESIAN_POINT ( 'NONE',  ( 25.39999999999999858, 3.110602869834276865E-15, 10.00000000000000000 ) ) ;
#27 = PERSON_AND_ORGANIZATION_ROLE ( 'creator' ) ;
#28 = CARTESIAN_POINT ( 'NONE',  ( 0.000000000000000000, 0.000000000000000000, 0.000000000000000000 ) ) ;
#29 = DIRECTION ( 'NONE',  ( 0.000000000000000000, 0.000000000000000000, 1.000000000000000000 ) ) ;
#30 = CARTESIAN_POINT ( 'NONE',  ( 25.40000000000072689, 3.110602869834366006E-15, 10.00000000000000888 ) ) ;
#31 = VERTEX_POINT ( 'NONE', #90 ) ;
#32 = EDGE_CURVE ( 'NONE', #51, #87, #155, .T. ) ;
#33 = CC_DESIGN_APPROVAL ( #177, ( #148 ) ) ;
#34 = ORIENTED_EDGE ( 'NONE', *, *, #1, .T. ) ;
#35 = PLANE ( 'NONE',  #14 ) ;
#36 = PRODUCT_DEFINITION_FORMATION_WITH_SPECIFIED_SOURCE ( 'ANY', '', #154, .NOT_KNOWN. ) ;
#37 = CC_DESIGN_DATE_AND_TIME_ASSIGNMENT ( #63, #38, ( #91 ) ) ;
#38 = DATE_TIME_ROLE ( 'classification_date' ) ;
#39 = FACE_OUTER_BOUND ( 'NONE', #50, .T. ) ;
#40 = DIRECTION ( 'NONE',  ( 0.000000000000000000, 0.000000000000000000, 1.000000000000000000 ) ) ;
#41 = ADVANCED_FACE ( 'NONE', ( #110 ), #92, .F. ) ;
#42 = SHAPE_DEFINITION_REPRESENTATION ( #136, #113 ) ;
#43 = DIRECTION ( 'NONE',  ( -0.000000000000000000, -0.000000000000000000, -1.000000000000000000 ) ) ;
#44 = APPROVAL_PERSON_ORGANIZATION ( #45, #102, #53 ) ;
#45 = PERSON_AND_ORGANIZATION ( #186, #181 ) ;
#46 = PERSON_AND_ORGANIZATION ( #186, #181 ) ;
#47 = EDGE_CURVE ( 'NONE', #31, #87, #146, .T. ) ;
#48 = PERSON_AND_ORGANIZATION ( #186, #181 ) ;
#49 = APPROVAL_STATUS ( 'not_yet_approved' ) ;
#50 = EDGE_LOOP ( 'NONE', ( #73, #13, #185 ) ) ;
#51 = VERTEX_POINT ( 'NONE', #173 ) ;
#52 = DIRECTION ( 'NONE',  ( 1.000000000000000000, 0.000000000000000000, 0.000000000000000000 ) ) ;
#53 = APPROVAL_ROLE ( '' ) ;
#54 = CARTESIAN_POINT ( 'NONE',  ( -25.39999999999999858, 0.000000000000000000, 10.00000000000000000 ) ) ;
#55 = AXIS2_PLACEMENT_3D ( 'NONE', #22, #25, #80 ) ;
#56 = CARTESIAN_POINT ( 'NONE',  ( 0.000000000000000000, 0.000000000000000000, 10.00000000000000000 ) ) ;
#57 = LOCAL_TIME ( 15, 29, 35.00000000000000000, #94 ) ;
#58 = PERSON_AND_ORGANIZATION ( #186, #181 ) ;
#59 = PERSON_AND_ORGANIZATION ( #186, #181 ) ;
#60 = ORIENTED_EDGE ( 'NONE', *, *, #32, .T. ) ;
#61 = CIRCLE ( 'NONE', #169, 25.40000000000065938 ) ;
#62 = DIRECTION ( 'NONE',  ( 0.000000000000000000, -1.000000000000000000, -0.000000000000000000 ) ) ;
#63 = DATE_AND_TIME ( #21, #17 ) ;
#64 = CARTESIAN_POINT ( 'NONE',  ( 6.591949208711866959E-14, 0.000000000000000000, 509.3544232306348363 ) ) ;
#65 = FACE_OUTER_BOUND ( 'NONE', #153, .T. ) ;
#66 = CLOSED_SHELL ( 'NONE', ( #72, #197, #187, #140, #41 ) ) ;
#67 = DIRECTION ( 'NONE',  ( -1.000000000000000000, 0.000000000000000000, 0.000000000000000000 ) ) ;
#68 = PRODUCT_RELATED_PRODUCT_CATEGORY ( 'detail', '', ( #154 ) ) ;
#69 = DATE_AND_TIME ( #10, #105 ) ;
#70 =( NAMED_UNIT ( * ) PLANE_ANGLE_UNIT ( ) SI_UNIT ( $, .RADIAN. ) );
#71 = CARTESIAN_POINT ( 'NONE',  ( 0.000000000000000000, 0.000000000000000000, 10.00000000000000000 ) ) ;
#72 = ADVANCED_FACE ( 'NONE', ( #39 ), #156, .F. ) ;
#73 = ORIENTED_EDGE ( 'NONE', *, *, #180, .F. ) ;
#74 = CIRCLE ( 'NONE', #143, 25.39999999999999858 ) ;
#75 = CC_DESIGN_APPROVAL ( #138, ( #36 ) ) ;
#76 = ORIENTED_EDGE ( 'NONE', *, *, #188, .F. ) ;
#77 = DIRECTION ( 'NONE',  ( -0.000000000000000000, -0.000000000000000000, -1.000000000000000000 ) ) ;
#78 = CC_DESIGN_DATE_AND_TIME_ASSIGNMENT ( #69, #199, ( #148 ) ) ;
#79 = CARTESIAN_POINT ( 'NONE',  ( 6.591949208711866959E-14, 0.000000000000000000, 10.00000000000000888 ) ) ;
#80 = DIRECTION ( 'NONE',  ( 1.000000000000000000, 0.000000000000000000, 0.000000000000000000 ) ) ;
#81 = FACE_OUTER_BOUND ( 'NONE', #135, .T. ) ;
#82 = CALENDAR_DATE ( 2021, 25, 2 ) ;
#83 =( NAMED_UNIT ( * ) SI_UNIT ( $, .STERADIAN. ) SOLID_ANGLE_UNIT ( ) );
#84 = DATE_AND_TIME ( #82, #198 ) ;
#85 = APPLICATION_CONTEXT ( 'configuration controlled 3d designs of mechanical parts and assemblies' ) ;
#86 = DATE_AND_TIME ( #179, #23 ) ;
#87 = VERTEX_POINT ( 'NONE', #139 ) ;
#88 = VERTEX_POINT ( 'NONE', #4 ) ;
#89 = APPROVAL_PERSON_ORGANIZATION ( #9, #177, #119 ) ;
#90 = CARTESIAN_POINT ( 'NONE',  ( 25.39999999999999858, 3.110602869834276865E-15, 0.000000000000000000 ) ) ;
#91 = SECURITY_CLASSIFICATION ( '', '', #6 ) ;
#92 = SPHERICAL_SURFACE ( 'NONE', #123, 500.0000000000000000 ) ;
#93 = PERSON_AND_ORGANIZATION ( #186, #181 ) ;
#94 = COORDINATED_UNIVERSAL_TIME_OFFSET ( 2, 0, .AHEAD. ) ;
#95 = LINE ( 'NONE', #26, #201 ) ;
#96 = APPROVAL_DATE_TIME ( #171, #102 ) ;
#97 = COORDINATED_UNIVERSAL_TIME_OFFSET ( 2, 0, .AHEAD. ) ;
#98 = PERSON_AND_ORGANIZATION_ROLE ( 'design_owner' ) ;
#99 = MECHANICAL_CONTEXT ( 'NONE', #85, 'mechanical' ) ;
#100 = AXIS2_PLACEMENT_3D ( 'NONE', #71, #43, #67 ) ;
#101 = ORIENTED_EDGE ( 'NONE', *, *, #157, .T. ) ;
#102 = APPROVAL ( #191, 'UNSPECIFIED' ) ;
#103 = ORIENTED_EDGE ( 'NONE', *, *, #20, .T. ) ;
#104 = ORIENTED_EDGE ( 'NONE', *, *, #32, .F. ) ;
#105 = LOCAL_TIME ( 15, 29, 35.00000000000000000, #97 ) ;
#106 = CC_DESIGN_PERSON_AND_ORGANIZATION_ASSIGNMENT ( #59, #98, ( #154 ) ) ;
#107 = EDGE_LOOP ( 'NONE', ( #76, #103, #60, #101 ) ) ;
#108 = DIRECTION ( 'NONE',  ( 0.000000000000000000, 1.000000000000000000, -0.000000000000000000 ) ) ;
#109 = COORDINATED_UNIVERSAL_TIME_OFFSET ( 2, 0, .AHEAD. ) ;
#110 = FACE_OUTER_BOUND ( 'NONE', #149, .T. ) ;
#111 = CC_DESIGN_PERSON_AND_ORGANIZATION_ASSIGNMENT ( #58, #27, ( #148 ) ) ;
#112 = CALENDAR_DATE ( 2021, 25, 2 ) ;
#113 = ADVANCED_BREP_SHAPE_REPRESENTATION ( '010-1505E_UVFS_PCV_window', ( #174, #16 ), #151 ) ;
#114 = DIRECTION ( 'NONE',  ( -0.000000000000000000, -0.000000000000000000, -1.000000000000000000 ) ) ;
#115 = APPLICATION_PROTOCOL_DEFINITION ( 'international standard', 'config_control_design', 1994, #164 ) ;
#116 = COORDINATED_UNIVERSAL_TIME_OFFSET ( 2, 0, .AHEAD. ) ;
#117 = CARTESIAN_POINT ( 'NONE',  ( 0.000000000000000000, 0.000000000000000000, 0.000000000000000000 ) ) ;
#118 = CC_DESIGN_APPROVAL ( #102, ( #91 ) ) ;
#119 = APPROVAL_ROLE ( '' ) ;
#120 = ORIENTED_EDGE ( 'NONE', *, *, #47, .T. ) ;
#121 = CC_DESIGN_SECURITY_CLASSIFICATION ( #91, ( #36 ) ) ;
#122 = EDGE_CURVE ( 'NONE', #51, #88, #134, .T. ) ;
#123 = AXIS2_PLACEMENT_3D ( 'NONE', #125, #62, #158 ) ;
#124 = CARTESIAN_POINT ( 'NONE',  ( 0.000000000000000000, 0.000000000000000000, 0.000000000000000000 ) ) ;
#125 = CARTESIAN_POINT ( 'NONE',  ( 6.591949208711866959E-14, 0.000000000000000000, 509.3544232306348363 ) ) ;
#126 = PERSON_AND_ORGANIZATION_ROLE ( 'design_supplier' ) ;
#127 = DIRECTION ( 'NONE',  ( 1.224646799147353207E-16, -1.000000000000000000, 0.000000000000000000 ) ) ;
#128 = DIRECTION ( 'NONE',  ( 0.000000000000000000, 0.000000000000000000, 1.000000000000000000 ) ) ;
#129 = DIRECTION ( 'NONE',  ( 1.000000000000000000, 0.000000000000000000, 0.000000000000000000 ) ) ;
#130 = AXIS2_PLACEMENT_3D ( 'NONE', #79, #77, #18 ) ;
#131 = ORIENTED_EDGE ( 'NONE', *, *, #180, .T. ) ;
#132 = CC_DESIGN_PERSON_AND_ORGANIZATION_ASSIGNMENT ( #3, #24, ( #91 ) ) ;
#133 = ORIENTED_EDGE ( 'NONE', *, *, #47, .F. ) ;
#134 = CIRCLE ( 'NONE', #159, 500.0000000000000000 ) ;
#135 = EDGE_LOOP ( 'NONE', ( #131, #150, #120, #104 ) ) ;
#136 = PRODUCT_DEFINITION_SHAPE ( 'NONE', 'NONE',  #148 ) ;
#137 = VECTOR ( 'NONE', #141, 1000.000000000000000 ) ;
#138 = APPROVAL ( #49, 'UNSPECIFIED' ) ;
#139 = CARTESIAN_POINT ( 'NONE',  ( -25.39999999999999858, 0.000000000000000000, 0.000000000000000000 ) ) ;
#140 = ADVANCED_FACE ( 'NONE', ( #65 ), #35, .F. ) ;
#141 = DIRECTION ( 'NONE',  ( -0.000000000000000000, -0.000000000000000000, -1.000000000000000000 ) ) ;
#142 = CYLINDRICAL_SURFACE ( 'NONE', #15, 25.39999999999999858 ) ;
#143 = AXIS2_PLACEMENT_3D ( 'NONE', #28, #128, #147 ) ;
#144 = APPROVAL_DATE_TIME ( #84, #177 ) ;
#145 = APPROVAL_STATUS ( 'not_yet_approved' ) ;
#146 = CIRCLE ( 'NONE', #200, 25.39999999999999858 ) ;
#147 = DIRECTION ( 'NONE',  ( 1.000000000000000000, 0.000000000000000000, 0.000000000000000000 ) ) ;
#148 = PRODUCT_DEFINITION ( 'UNKNOWN', '', #36, #182 ) ;
#149 = EDGE_LOOP ( 'NONE', ( #163, #167, #34 ) ) ;
#150 = ORIENTED_EDGE ( 'NONE', *, *, #188, .T. ) ;
#151 =( GEOMETRIC_REPRESENTATION_CONTEXT ( 3 ) GLOBAL_UNCERTAINTY_ASSIGNED_CONTEXT ( ( #152 ) ) GLOBAL_UNIT_ASSIGNED_CONTEXT ( ( #162, #70, #83 ) ) REPRESENTATION_CONTEXT ( 'NONE', 'WORKASPACE' ) );
#152 = UNCERTAINTY_MEASURE_WITH_UNIT (LENGTH_MEASURE( 1.000000000000000082E-05 ), #162, 'distance_accuracy_value', 'NONE');
#153 = EDGE_LOOP ( 'NONE', ( #166, #133 ) ) ;
#154 = PRODUCT ( '010-1505E_UVFS_PCV_window', '010-1505E_UVFS_PCV_window', '', ( #99 ) ) ;
#155 = LINE ( 'NONE', #54, #137 ) ;
#156 = SPHERICAL_SURFACE ( 'NONE', #55, 500.0000000000000000 ) ;
#157 = EDGE_CURVE ( 'NONE', #87, #31, #74, .T. ) ;
#158 = DIRECTION ( 'NONE',  ( 1.000000000000000000, 0.000000000000000000, 0.000000000000000000 ) ) ;
#159 = AXIS2_PLACEMENT_3D ( 'NONE', #64, #127, #5 ) ;
#160 = APPROVAL_ROLE ( '' ) ;
#161 = APPLICATION_PROTOCOL_DEFINITION ( 'international standard', 'config_control_design', 1994, #85 ) ;
#162 =( LENGTH_UNIT ( ) NAMED_UNIT ( * ) SI_UNIT ( .MILLI., .METRE. ) );
#163 = ORIENTED_EDGE ( 'NONE', *, *, #122, .F. ) ;
#164 = APPLICATION_CONTEXT ( 'configuration controlled 3d designs of mechanical parts and assemblies' ) ;
#165 = VERTEX_POINT ( 'NONE', #30 ) ;
#166 = ORIENTED_EDGE ( 'NONE', *, *, #157, .F. ) ;
#167 = ORIENTED_EDGE ( 'NONE', *, *, #20, .F. ) ;
#168 = CC_DESIGN_PERSON_AND_ORGANIZATION_ASSIGNMENT ( #93, #126, ( #36 ) ) ;
#169 = AXIS2_PLACEMENT_3D ( 'NONE', #7, #195, #196 ) ;
#170 = APPROVAL_PERSON_ORGANIZATION ( #46, #138, #160 ) ;
#171 = DATE_AND_TIME ( #112, #57 ) ;
#172 = CIRCLE ( 'NONE', #130, 25.40000000000065938 ) ;
#173 = CARTESIAN_POINT ( 'NONE',  ( -25.40000000000059188, 0.000000000000000000, 10.00000000000000888 ) ) ;
#174 = MANIFOLD_SOLID_BREP ( 'Cut-Revolve1', #66 ) ;
#175 = FACE_OUTER_BOUND ( 'NONE', #107, .T. ) ;
#176 = DIRECTION ( 'NONE',  ( -0.000000000000000000, -0.000000000000000000, -1.000000000000000000 ) ) ;
#177 = APPROVAL ( #145, 'UNSPECIFIED' ) ;
#178 = DIRECTION ( 'NONE',  ( -1.000000000000000000, 0.000000000000000000, 0.000000000000000000 ) ) ;
#179 = CALENDAR_DATE ( 2021, 25, 2 ) ;
#180 = EDGE_CURVE ( 'NONE', #51, #165, #61, .T. ) ;
#181 = ORGANIZATION ( 'UNSPECIFIED', 'UNSPECIFIED', '' ) ;
#182 = DESIGN_CONTEXT ( 'detailed design', #164, 'design' ) ;
#183 = COORDINATED_UNIVERSAL_TIME_OFFSET ( 2, 0, .AHEAD. ) ;
#184 = AXIS2_PLACEMENT_3D ( 'NONE', #193, #108, #40 ) ;
#185 = ORIENTED_EDGE ( 'NONE', *, *, #1, .F. ) ;
#186 = PERSON ( 'UNSPECIFIED', 'UNSPECIFIED', 'UNSPECIFIED', ('UNSPECIFIED'), ('UNSPECIFIED'), ('UNSPECIFIED') ) ;
#187 = ADVANCED_FACE ( 'NONE', ( #175 ), #11, .T. ) ;
#188 = EDGE_CURVE ( 'NONE', #165, #31, #95, .T. ) ;
#189 = DIRECTION ( 'NONE',  ( 1.000000000000000000, 0.000000000000000000, -0.000000000000000000 ) ) ;
#190 = DIRECTION ( 'NONE',  ( 0.000000000000000000, 0.000000000000000000, 1.000000000000000000 ) ) ;
#191 = APPROVAL_STATUS ( 'not_yet_approved' ) ;
#192 = DIRECTION ( 'NONE',  ( 0.000000000000000000, 0.000000000000000000, 1.000000000000000000 ) ) ;
#193 = CARTESIAN_POINT ( 'NONE',  ( 6.591949208711866959E-14, 0.000000000000000000, 509.3544232306348363 ) ) ;
#194 = PERSON_AND_ORGANIZATION_ROLE ( 'creator' ) ;
#195 = DIRECTION ( 'NONE',  ( -0.000000000000000000, -0.000000000000000000, -1.000000000000000000 ) ) ;
#196 = DIRECTION ( 'NONE',  ( 1.000000000000000000, 0.000000000000000000, 0.000000000000000000 ) ) ;
#197 = ADVANCED_FACE ( 'NONE', ( #81 ), #142, .T. ) ;
#198 = LOCAL_TIME ( 15, 29, 35.00000000000000000, #183 ) ;
#199 = DATE_TIME_ROLE ( 'creation_date' ) ;
#200 = AXIS2_PLACEMENT_3D ( 'NONE', #2, #190, #52 ) ;
#201 = VECTOR ( 'NONE', #114, 1000.000000000000000 ) ;
ENDSEC;
END-ISO-10303-21;
