ISO-10303-21;
HEADER;
FILE_DESCRIPTION (( 'STEP AP203' ),
    '1' );
FILE_NAME ('010-1504E_UVFS_PCV_window.STEP',
    '2021-02-25T13:29:14',
    ( '' ),
    ( '' ),
    'SwSTEP 2.0',
    'SolidWorks 2019',
    '' );
FILE_SCHEMA (( 'CONFIG_CONTROL_DESIGN' ));
ENDSEC;

DATA;
#1 =( GEOMETRIC_REPRESENTATION_CONTEXT ( 3 ) GLOBAL_UNCERTAINTY_ASSIGNED_CONTEXT ( ( #199 ) ) GLOBAL_UNIT_ASSIGNED_CONTEXT ( ( #52, #114, #64 ) ) REPRESENTATION_CONTEXT ( 'NONE', 'WORKASPACE' ) );
#2 = CC_DESIGN_PERSON_AND_ORGANIZATION_ASSIGNMENT ( #194, #172, ( #165 ) ) ;
#3 = APPROVAL_DATE_TIME ( #89, #193 ) ;
#4 = PERSON_AND_ORGANIZATION_ROLE ( 'design_supplier' ) ;
#5 = AXIS2_PLACEMENT_3D ( 'NONE', #81, #129, #109 ) ;
#6 = APPROVAL_ROLE ( '' ) ;
#7 = DIRECTION ( 'NONE',  ( 0.000000000000000000, 0.000000000000000000, 1.000000000000000000 ) ) ;
#8 = DIRECTION ( 'NONE',  ( 1.000000000000000000, 0.000000000000000000, 0.000000000000000000 ) ) ;
#9 = EDGE_CURVE ( 'NONE', #92, #121, #54, .T. ) ;
#10 = DIRECTION ( 'NONE',  ( 1.000000000000000000, 0.000000000000000000, -0.000000000000000000 ) ) ;
#11 = CARTESIAN_POINT ( 'NONE',  ( -25.40000000000006253, 0.000000000000000000, 10.00000000000000888 ) ) ;
#12 = CC_DESIGN_PERSON_AND_ORGANIZATION_ASSIGNMENT ( #72, #91, ( #14 ) ) ;
#13 = CIRCLE ( 'NONE', #166, 25.40000000000011227 ) ;
#14 = PRODUCT_DEFINITION ( 'UNKNOWN', '', #98, #176 ) ;
#15 = AXIS2_PLACEMENT_3D ( 'NONE', #51, #201, #113 ) ;
#16 = APPROVAL_DATE_TIME ( #154, #26 ) ;
#17 = ORIENTED_EDGE ( 'NONE', *, *, #40, .F. ) ;
#18 = LOCAL_TIME ( 15, 29, 14.00000000000000000, #126 ) ;
#19 = DIRECTION ( 'NONE',  ( 1.000000000000000000, 0.000000000000000000, 0.000000000000000000 ) ) ;
#20 = CC_DESIGN_PERSON_AND_ORGANIZATION_ASSIGNMENT ( #171, #122, ( #98 ) ) ;
#21 = APPLICATION_PROTOCOL_DEFINITION ( 'international standard', 'config_control_design', 1994, #180 ) ;
#22 = CARTESIAN_POINT ( 'NONE',  ( 25.40000000000016911, 3.110602869834297770E-15, 10.00000000000000888 ) ) ;
#23 = DIRECTION ( 'NONE',  ( 1.000000000000000000, 0.000000000000000000, 0.000000000000000000 ) ) ;
#24 = FACE_OUTER_BOUND ( 'NONE', #170, .T. ) ;
#25 = FACE_OUTER_BOUND ( 'NONE', #155, .T. ) ;
#26 = APPROVAL ( #68, 'UNSPECIFIED' ) ;
#27 = ADVANCED_BREP_SHAPE_REPRESENTATION ( '010-1504E_UVFS_PCV_window', ( #55, #71 ), #1 ) ;
#28 = CC_DESIGN_DATE_AND_TIME_ASSIGNMENT ( #104, #167, ( #14 ) ) ;
#29 = CIRCLE ( 'NONE', #143, 400.0000000000000000 ) ;
#30 = APPROVAL_STATUS ( 'not_yet_approved' ) ;
#31 = COORDINATED_UNIVERSAL_TIME_OFFSET ( 2, 0, .AHEAD. ) ;
#32 = ORIENTED_EDGE ( 'NONE', *, *, #9, .F. ) ;
#33 = DATE_AND_TIME ( #186, #182 ) ;
#34 = PERSON_AND_ORGANIZATION_ROLE ( 'classification_officer' ) ;
#35 = APPLICATION_PROTOCOL_DEFINITION ( 'international standard', 'config_control_design', 1994, #56 ) ;
#36 = DIRECTION ( 'NONE',  ( 1.000000000000000000, 1.224646799147353207E-16, 0.000000000000000000 ) ) ;
#37 = DIRECTION ( 'NONE',  ( 0.000000000000000000, -1.000000000000000000, -0.000000000000000000 ) ) ;
#38 = CARTESIAN_POINT ( 'NONE',  ( 5.204170427930421283E-14, 0.000000000000000000, 10.00000000000000888 ) ) ;
#39 = CIRCLE ( 'NONE', #116, 25.39999999999999858 ) ;
#40 = EDGE_CURVE ( 'NONE', #107, #141, #39, .T. ) ;
#41 = PRODUCT_RELATED_PRODUCT_CATEGORY ( 'detail', '', ( #165 ) ) ;
#42 = APPROVAL_PERSON_ORGANIZATION ( #156, #73, #6 ) ;
#43 = AXIS2_PLACEMENT_3D ( 'NONE', #147, #37, #95 ) ;
#44 = EDGE_CURVE ( 'NONE', #121, #103, #62, .T. ) ;
#45 = COORDINATED_UNIVERSAL_TIME_OFFSET ( 2, 0, .AHEAD. ) ;
#46 = ORIENTED_EDGE ( 'NONE', *, *, #110, .F. ) ;
#47 = ORGANIZATION ( 'UNSPECIFIED', 'UNSPECIFIED', '' ) ;
#48 = DATE_TIME_ROLE ( 'classification_date' ) ;
#49 = ORIENTED_EDGE ( 'NONE', *, *, #83, .F. ) ;
#50 = CYLINDRICAL_SURFACE ( 'NONE', #5, 25.39999999999999858 ) ;
#51 = CARTESIAN_POINT ( 'NONE',  ( 0.000000000000000000, 0.000000000000000000, 0.000000000000000000 ) ) ;
#52 =( LENGTH_UNIT ( ) NAMED_UNIT ( * ) SI_UNIT ( .MILLI., .METRE. ) );
#53 = DIRECTION ( 'NONE',  ( -0.000000000000000000, -0.000000000000000000, -1.000000000000000000 ) ) ;
#54 = CIRCLE ( 'NONE', #183, 25.40000000000011227 ) ;
#55 = MANIFOLD_SOLID_BREP ( 'Cut-Revolve1', #152 ) ;
#56 = APPLICATION_CONTEXT ( 'configuration controlled 3d designs of mechanical parts and assemblies' ) ;
#57 = CALENDAR_DATE ( 2021, 25, 2 ) ;
#58 = ADVANCED_FACE ( 'NONE', ( #197 ), #161, .F. ) ;
#59 = APPROVAL_STATUS ( 'not_yet_approved' ) ;
#60 = ORIENTED_EDGE ( 'NONE', *, *, #110, .T. ) ;
#61 = ORIENTED_EDGE ( 'NONE', *, *, #40, .T. ) ;
#62 = CIRCLE ( 'NONE', #179, 400.0000000000000000 ) ;
#63 = ORIENTED_EDGE ( 'NONE', *, *, #44, .T. ) ;
#64 =( NAMED_UNIT ( * ) SI_UNIT ( $, .STERADIAN. ) SOLID_ANGLE_UNIT ( ) );
#65 = DIRECTION ( 'NONE',  ( 0.000000000000000000, 0.000000000000000000, 1.000000000000000000 ) ) ;
#66 = PERSON_AND_ORGANIZATION ( #145, #47 ) ;
#67 = FACE_OUTER_BOUND ( 'NONE', #157, .T. ) ;
#68 = APPROVAL_STATUS ( 'not_yet_approved' ) ;
#69 = CARTESIAN_POINT ( 'NONE',  ( 25.39999999999999858, 3.110602869834276865E-15, 10.00000000000000000 ) ) ;
#70 = CARTESIAN_POINT ( 'NONE',  ( 25.39999999999999858, 3.110602869834276865E-15, 0.000000000000000000 ) ) ;
#71 = AXIS2_PLACEMENT_3D ( 'NONE', #130, #111, #174 ) ;
#72 = PERSON_AND_ORGANIZATION ( #145, #47 ) ;
#73 = APPROVAL ( #59, 'UNSPECIFIED' ) ;
#74 = SHAPE_DEFINITION_REPRESENTATION ( #139, #27 ) ;
#75 = CALENDAR_DATE ( 2021, 25, 2 ) ;
#76 = ORIENTED_EDGE ( 'NONE', *, *, #83, .T. ) ;
#77 = PERSON_AND_ORGANIZATION ( #145, #47 ) ;
#78 = VECTOR ( 'NONE', #115, 1000.000000000000000 ) ;
#79 = ADVANCED_FACE ( 'NONE', ( #25 ), #50, .T. ) ;
#80 = DIRECTION ( 'NONE',  ( 0.000000000000000000, 1.000000000000000000, -0.000000000000000000 ) ) ;
#81 = CARTESIAN_POINT ( 'NONE',  ( 0.000000000000000000, 0.000000000000000000, 10.00000000000000000 ) ) ;
#82 = DIRECTION ( 'NONE',  ( 1.224646799147353207E-16, -1.000000000000000000, 0.000000000000000000 ) ) ;
#83 = EDGE_CURVE ( 'NONE', #141, #107, #93, .T. ) ;
#84 = AXIS2_PLACEMENT_3D ( 'NONE', #100, #85, #200 ) ;
#85 = DIRECTION ( 'NONE',  ( 0.000000000000000000, -1.000000000000000000, -0.000000000000000000 ) ) ;
#86 = DIRECTION ( 'NONE',  ( -0.000000000000000000, -0.000000000000000000, -1.000000000000000000 ) ) ;
#87 = APPROVAL_PERSON_ORGANIZATION ( #66, #26, #196 ) ;
#88 = CALENDAR_DATE ( 2021, 25, 2 ) ;
#89 = DATE_AND_TIME ( #75, #137 ) ;
#90 = ORIENTED_EDGE ( 'NONE', *, *, #9, .T. ) ;
#91 = PERSON_AND_ORGANIZATION_ROLE ( 'creator' ) ;
#92 = VERTEX_POINT ( 'NONE', #11 ) ;
#93 = CIRCLE ( 'NONE', #15, 25.39999999999999858 ) ;
#94 = LINE ( 'NONE', #198, #78 ) ;
#95 = DIRECTION ( 'NONE',  ( 1.000000000000000000, 0.000000000000000000, 0.000000000000000000 ) ) ;
#96 = CARTESIAN_POINT ( 'NONE',  ( 0.000000000000000000, 0.000000000000000000, 10.00000000000000000 ) ) ;
#97 = SPHERICAL_SURFACE ( 'NONE', #43, 400.0000000000000000 ) ;
#98 = PRODUCT_DEFINITION_FORMATION_WITH_SPECIFIED_SOURCE ( 'ANY', '', #165, .NOT_KNOWN. ) ;
#99 = AXIS2_PLACEMENT_3D ( 'NONE', #131, #65, #10 ) ;
#100 = CARTESIAN_POINT ( 'NONE',  ( 5.204170427930421283E-14, 0.000000000000000000, 409.1927354048418124 ) ) ;
#101 = CC_DESIGN_PERSON_AND_ORGANIZATION_ASSIGNMENT ( #77, #34, ( #153 ) ) ;
#102 = VECTOR ( 'NONE', #148, 1000.000000000000000 ) ;
#103 = VERTEX_POINT ( 'NONE', #112 ) ;
#104 = DATE_AND_TIME ( #187, #195 ) ;
#105 = EDGE_LOOP ( 'NONE', ( #46, #188, #63 ) ) ;
#106 = SECURITY_CLASSIFICATION_LEVEL ( 'unclassified' ) ;
#107 = VERTEX_POINT ( 'NONE', #177 ) ;
#108 = MECHANICAL_CONTEXT ( 'NONE', #180, 'mechanical' ) ;
#109 = DIRECTION ( 'NONE',  ( -1.000000000000000000, 0.000000000000000000, 0.000000000000000000 ) ) ;
#110 = EDGE_CURVE ( 'NONE', #92, #103, #29, .T. ) ;
#111 = DIRECTION ( 'NONE',  ( 0.000000000000000000, 0.000000000000000000, 1.000000000000000000 ) ) ;
#112 = CARTESIAN_POINT ( 'NONE',  ( 7.653464026225126771E-14, 0.000000000000000000, 9.192735404841778646 ) ) ;
#113 = DIRECTION ( 'NONE',  ( 1.000000000000000000, 0.000000000000000000, 0.000000000000000000 ) ) ;
#114 =( NAMED_UNIT ( * ) PLANE_ANGLE_UNIT ( ) SI_UNIT ( $, .RADIAN. ) );
#115 = DIRECTION ( 'NONE',  ( -0.000000000000000000, -0.000000000000000000, -1.000000000000000000 ) ) ;
#116 = AXIS2_PLACEMENT_3D ( 'NONE', #144, #178, #8 ) ;
#117 = CC_DESIGN_APPROVAL ( #26, ( #14 ) ) ;
#118 = EDGE_CURVE ( 'NONE', #121, #92, #13, .T. ) ;
#119 = PERSON_AND_ORGANIZATION ( #145, #47 ) ;
#120 = APPROVAL_DATE_TIME ( #33, #73 ) ;
#121 = VERTEX_POINT ( 'NONE', #22 ) ;
#122 = PERSON_AND_ORGANIZATION_ROLE ( 'creator' ) ;
#123 = ORIENTED_EDGE ( 'NONE', *, *, #164, .T. ) ;
#124 = CC_DESIGN_DATE_AND_TIME_ASSIGNMENT ( #190, #48, ( #153 ) ) ;
#125 = CC_DESIGN_APPROVAL ( #193, ( #98 ) ) ;
#126 = COORDINATED_UNIVERSAL_TIME_OFFSET ( 2, 0, .AHEAD. ) ;
#127 = ORIENTED_EDGE ( 'NONE', *, *, #118, .T. ) ;
#128 = ORIENTED_EDGE ( 'NONE', *, *, #136, .T. ) ;
#129 = DIRECTION ( 'NONE',  ( -0.000000000000000000, -0.000000000000000000, -1.000000000000000000 ) ) ;
#130 = CARTESIAN_POINT ( 'NONE',  ( 0.000000000000000000, 0.000000000000000000, 0.000000000000000000 ) ) ;
#131 = CARTESIAN_POINT ( 'NONE',  ( 0.000000000000000000, 0.000000000000000000, 0.000000000000000000 ) ) ;
#132 = CC_DESIGN_APPROVAL ( #73, ( #153 ) ) ;
#133 = FACE_OUTER_BOUND ( 'NONE', #105, .T. ) ;
#134 = SPHERICAL_SURFACE ( 'NONE', #84, 400.0000000000000000 ) ;
#135 = DIRECTION ( 'NONE',  ( -0.000000000000000000, -0.000000000000000000, -1.000000000000000000 ) ) ;
#136 = EDGE_CURVE ( 'NONE', #92, #107, #94, .T. ) ;
#137 = LOCAL_TIME ( 15, 29, 14.00000000000000000, #31 ) ;
#138 = AXIS2_PLACEMENT_3D ( 'NONE', #96, #86, #146 ) ;
#139 = PRODUCT_DEFINITION_SHAPE ( 'NONE', 'NONE',  #14 ) ;
#140 = PERSON_AND_ORGANIZATION ( #145, #47 ) ;
#141 = VERTEX_POINT ( 'NONE', #70 ) ;
#142 = COORDINATED_UNIVERSAL_TIME_OFFSET ( 2, 0, .AHEAD. ) ;
#143 = AXIS2_PLACEMENT_3D ( 'NONE', #173, #82, #36 ) ;
#144 = CARTESIAN_POINT ( 'NONE',  ( 0.000000000000000000, 0.000000000000000000, 0.000000000000000000 ) ) ;
#145 = PERSON ( 'UNSPECIFIED', 'UNSPECIFIED', 'UNSPECIFIED', ('UNSPECIFIED'), ('UNSPECIFIED'), ('UNSPECIFIED') ) ;
#146 = DIRECTION ( 'NONE',  ( -1.000000000000000000, 0.000000000000000000, 0.000000000000000000 ) ) ;
#147 = CARTESIAN_POINT ( 'NONE',  ( 5.204170427930421283E-14, 0.000000000000000000, 409.1927354048418124 ) ) ;
#148 = DIRECTION ( 'NONE',  ( -0.000000000000000000, -0.000000000000000000, -1.000000000000000000 ) ) ;
#149 = CC_DESIGN_PERSON_AND_ORGANIZATION_ASSIGNMENT ( #140, #4, ( #98 ) ) ;
#150 = ADVANCED_FACE ( 'NONE', ( #67 ), #175, .T. ) ;
#151 = CC_DESIGN_SECURITY_CLASSIFICATION ( #153, ( #98 ) ) ;
#152 = CLOSED_SHELL ( 'NONE', ( #185, #150, #79, #58, #181 ) ) ;
#153 = SECURITY_CLASSIFICATION ( '', '', #106 ) ;
#154 = DATE_AND_TIME ( #57, #18 ) ;
#155 = EDGE_LOOP ( 'NONE', ( #158, #127, #128, #61 ) ) ;
#156 = PERSON_AND_ORGANIZATION ( #145, #47 ) ;
#157 = EDGE_LOOP ( 'NONE', ( #90, #123, #76, #168 ) ) ;
#158 = ORIENTED_EDGE ( 'NONE', *, *, #164, .F. ) ;
#159 = CARTESIAN_POINT ( 'NONE',  ( 5.204170427930421283E-14, 0.000000000000000000, 10.00000000000000888 ) ) ;
#160 = CARTESIAN_POINT ( 'NONE',  ( 5.204170427930421283E-14, 0.000000000000000000, 409.1927354048418124 ) ) ;
#161 = PLANE ( 'NONE',  #99 ) ;
#162 = LINE ( 'NONE', #69, #102 ) ;
#163 = APPROVAL_PERSON_ORGANIZATION ( #119, #193, #184 ) ;
#164 = EDGE_CURVE ( 'NONE', #121, #141, #162, .T. ) ;
#165 = PRODUCT ( '010-1504E_UVFS_PCV_window', '010-1504E_UVFS_PCV_window', '', ( #108 ) ) ;
#166 = AXIS2_PLACEMENT_3D ( 'NONE', #38, #53, #23 ) ;
#167 = DATE_TIME_ROLE ( 'creation_date' ) ;
#168 = ORIENTED_EDGE ( 'NONE', *, *, #136, .F. ) ;
#169 = COORDINATED_UNIVERSAL_TIME_OFFSET ( 2, 0, .AHEAD. ) ;
#170 = EDGE_LOOP ( 'NONE', ( #32, #60, #191 ) ) ;
#171 = PERSON_AND_ORGANIZATION ( #145, #47 ) ;
#172 = PERSON_AND_ORGANIZATION_ROLE ( 'design_owner' ) ;
#173 = CARTESIAN_POINT ( 'NONE',  ( 5.204170427930421283E-14, 0.000000000000000000, 409.1927354048418124 ) ) ;
#174 = DIRECTION ( 'NONE',  ( 1.000000000000000000, 0.000000000000000000, 0.000000000000000000 ) ) ;
#175 = CYLINDRICAL_SURFACE ( 'NONE', #138, 25.39999999999999858 ) ;
#176 = DESIGN_CONTEXT ( 'detailed design', #56, 'design' ) ;
#177 = CARTESIAN_POINT ( 'NONE',  ( -25.39999999999999858, 0.000000000000000000, 0.000000000000000000 ) ) ;
#178 = DIRECTION ( 'NONE',  ( 0.000000000000000000, 0.000000000000000000, 1.000000000000000000 ) ) ;
#179 = AXIS2_PLACEMENT_3D ( 'NONE', #160, #80, #7 ) ;
#180 = APPLICATION_CONTEXT ( 'configuration controlled 3d designs of mechanical parts and assemblies' ) ;
#181 = ADVANCED_FACE ( 'NONE', ( #133 ), #97, .F. ) ;
#182 = LOCAL_TIME ( 15, 29, 14.00000000000000000, #45 ) ;
#183 = AXIS2_PLACEMENT_3D ( 'NONE', #159, #135, #19 ) ;
#184 = APPROVAL_ROLE ( '' ) ;
#185 = ADVANCED_FACE ( 'NONE', ( #24 ), #134, .F. ) ;
#186 = CALENDAR_DATE ( 2021, 25, 2 ) ;
#187 = CALENDAR_DATE ( 2021, 25, 2 ) ;
#188 = ORIENTED_EDGE ( 'NONE', *, *, #118, .F. ) ;
#189 = LOCAL_TIME ( 15, 29, 14.00000000000000000, #169 ) ;
#190 = DATE_AND_TIME ( #88, #189 ) ;
#191 = ORIENTED_EDGE ( 'NONE', *, *, #44, .F. ) ;
#192 = EDGE_LOOP ( 'NONE', ( #17, #49 ) ) ;
#193 = APPROVAL ( #30, 'UNSPECIFIED' ) ;
#194 = PERSON_AND_ORGANIZATION ( #145, #47 ) ;
#195 = LOCAL_TIME ( 15, 29, 14.00000000000000000, #142 ) ;
#196 = APPROVAL_ROLE ( '' ) ;
#197 = FACE_OUTER_BOUND ( 'NONE', #192, .T. ) ;
#198 = CARTESIAN_POINT ( 'NONE',  ( -25.39999999999999858, 0.000000000000000000, 10.00000000000000000 ) ) ;
#199 = UNCERTAINTY_MEASURE_WITH_UNIT (LENGTH_MEASURE( 1.000000000000000082E-05 ), #52, 'distance_accuracy_value', 'NONE');
#200 = DIRECTION ( 'NONE',  ( 1.000000000000000000, 0.000000000000000000, 0.000000000000000000 ) ) ;
#201 = DIRECTION ( 'NONE',  ( 0.000000000000000000, 0.000000000000000000, 1.000000000000000000 ) ) ;
ENDSEC;
END-ISO-10303-21;
