ISO-10303-21;
HEADER;
FILE_DESCRIPTION (( 'STEP AP203' ),
    '1' );
FILE_NAME ('010-1503E_UVFS_PCV_window.STEP',
    '2021-02-25T13:28:54',
    ( '' ),
    ( '' ),
    'SwSTEP 2.0',
    'SolidWorks 2019',
    '' );
FILE_SCHEMA (( 'CONFIG_CONTROL_DESIGN' ));
ENDSEC;

DATA;
#1 = LINE ( 'NONE', #156, #82 ) ;
#2 = CYLINDRICAL_SURFACE ( 'NONE', #19, 25.39999999999999858 ) ;
#3 = PLANE ( 'NONE',  #106 ) ;
#4 = CALENDAR_DATE ( 2021, 25, 2 ) ;
#5 = APPROVAL ( #145, 'UNSPECIFIED' ) ;
#6 = PERSON_AND_ORGANIZATION_ROLE ( 'creator' ) ;
#7 = CALENDAR_DATE ( 2021, 25, 2 ) ;
#8 = ADVANCED_FACE ( 'NONE', ( #69 ), #2, .T. ) ;
#9 = AXIS2_PLACEMENT_3D ( 'NONE', #159, #68, #176 ) ;
#10 = APPROVAL_DATE_TIME ( #110, #59 ) ;
#11 = COORDINATED_UNIVERSAL_TIME_OFFSET ( 2, 0, .AHEAD. ) ;
#12 = AXIS2_PLACEMENT_3D ( 'NONE', #129, #138, #142 ) ;
#13 = ORIENTED_EDGE ( 'NONE', *, *, #28, .F. ) ;
#14 = LOCAL_TIME ( 15, 28, 54.00000000000000000, #193 ) ;
#15 = CC_DESIGN_DATE_AND_TIME_ASSIGNMENT ( #118, #178, ( #79 ) ) ;
#16 = ORIENTED_EDGE ( 'NONE', *, *, #119, .F. ) ;
#17 = FACE_OUTER_BOUND ( 'NONE', #95, .T. ) ;
#18 = DIRECTION ( 'NONE',  ( 1.000000000000000000, 0.000000000000000000, 0.000000000000000000 ) ) ;
#19 = AXIS2_PLACEMENT_3D ( 'NONE', #53, #100, #20 ) ;
#20 = DIRECTION ( 'NONE',  ( -1.000000000000000000, 0.000000000000000000, 0.000000000000000000 ) ) ;
#21 = DIRECTION ( 'NONE',  ( 1.000000000000000000, 0.000000000000000000, 0.000000000000000000 ) ) ;
#22 = PRODUCT_DEFINITION_FORMATION_WITH_SPECIFIED_SOURCE ( 'ANY', '', #24, .NOT_KNOWN. ) ;
#23 = VERTEX_POINT ( 'NONE', #54 ) ;
#24 = PRODUCT ( '010-1503E_UVFS_PCV_window', '010-1503E_UVFS_PCV_window', '', ( #107 ) ) ;
#25 = PERSON_AND_ORGANIZATION ( #196, #103 ) ;
#26 = DIRECTION ( 'NONE',  ( 1.000000000000000000, 0.000000000000000000, 0.000000000000000000 ) ) ;
#27 = APPROVAL_ROLE ( '' ) ;
#28 = EDGE_CURVE ( 'NONE', #127, #23, #47, .T. ) ;
#29 = APPLICATION_CONTEXT ( 'configuration controlled 3d designs of mechanical parts and assemblies' ) ;
#30 = LOCAL_TIME ( 15, 28, 54.00000000000000000, #164 ) ;
#31 = PERSON_AND_ORGANIZATION_ROLE ( 'design_supplier' ) ;
#32 = CC_DESIGN_PERSON_AND_ORGANIZATION_ASSIGNMENT ( #148, #31, ( #22 ) ) ;
#33 = CIRCLE ( 'NONE', #194, 25.39999999999999858 ) ;
#34 = VERTEX_POINT ( 'NONE', #113 ) ;
#35 = CYLINDRICAL_SURFACE ( 'NONE', #149, 25.39999999999999858 ) ;
#36 = CARTESIAN_POINT ( 'NONE',  ( 25.40000000000027924, 3.110602869834311575E-15, 10.00000000000000888 ) ) ;
#37 = CARTESIAN_POINT ( 'NONE',  ( -25.40000000000021529, 0.000000000000000000, 10.00000000000000888 ) ) ;
#38 = EDGE_LOOP ( 'NONE', ( #80, #16, #60 ) ) ;
#39 = CC_DESIGN_PERSON_AND_ORGANIZATION_ASSIGNMENT ( #161, #40, ( #24 ) ) ;
#40 = PERSON_AND_ORGANIZATION_ROLE ( 'design_owner' ) ;
#41 = DIRECTION ( 'NONE',  ( -0.000000000000000000, -0.000000000000000000, -1.000000000000000000 ) ) ;
#42 = APPLICATION_PROTOCOL_DEFINITION ( 'international standard', 'config_control_design', 1994, #61 ) ;
#43 = PERSON_AND_ORGANIZATION ( #196, #103 ) ;
#44 = AXIS2_PLACEMENT_3D ( 'NONE', #189, #192, #21 ) ;
#45 = SECURITY_CLASSIFICATION_LEVEL ( 'unclassified' ) ;
#46 = PERSON_AND_ORGANIZATION ( #196, #103 ) ;
#47 = CIRCLE ( 'NONE', #12, 250.0000000000000000 ) ;
#48 = ORIENTED_EDGE ( 'NONE', *, *, #187, .T. ) ;
#49 = CARTESIAN_POINT ( 'NONE',  ( 3.469446951953614189E-14, 0.000000000000000000, 258.7063328506131938 ) ) ;
#50 = DIRECTION ( 'NONE',  ( -1.000000000000000000, 0.000000000000000000, 0.000000000000000000 ) ) ;
#51 = CARTESIAN_POINT ( 'NONE',  ( 0.000000000000000000, 0.000000000000000000, 0.000000000000000000 ) ) ;
#52 = ADVANCED_FACE ( 'NONE', ( #17 ), #35, .T. ) ;
#53 = CARTESIAN_POINT ( 'NONE',  ( 0.000000000000000000, 0.000000000000000000, 10.00000000000000000 ) ) ;
#54 = CARTESIAN_POINT ( 'NONE',  ( 5.000255450887806065E-14, 0.000000000000000000, 8.706332850613174301 ) ) ;
#55 = PRODUCT_DEFINITION_SHAPE ( 'NONE', 'NONE',  #79 ) ;
#56 = DIRECTION ( 'NONE',  ( 1.000000000000000000, 0.000000000000000000, 0.000000000000000000 ) ) ;
#57 = CALENDAR_DATE ( 2021, 25, 2 ) ;
#58 =( GEOMETRIC_REPRESENTATION_CONTEXT ( 3 ) GLOBAL_UNCERTAINTY_ASSIGNED_CONTEXT ( ( #92 ) ) GLOBAL_UNIT_ASSIGNED_CONTEXT ( ( #175, #85, #173 ) ) REPRESENTATION_CONTEXT ( 'NONE', 'WORKASPACE' ) );
#59 = APPROVAL ( #135, 'UNSPECIFIED' ) ;
#60 = ORIENTED_EDGE ( 'NONE', *, *, #28, .T. ) ;
#61 = APPLICATION_CONTEXT ( 'configuration controlled 3d designs of mechanical parts and assemblies' ) ;
#62 = CIRCLE ( 'NONE', #44, 25.39999999999999858 ) ;
#63 = CIRCLE ( 'NONE', #177, 25.40000000000024727 ) ;
#64 = VERTEX_POINT ( 'NONE', #200 ) ;
#65 = ORIENTED_EDGE ( 'NONE', *, *, #166, .F. ) ;
#66 = SECURITY_CLASSIFICATION ( '', '', #45 ) ;
#67 = CARTESIAN_POINT ( 'NONE',  ( 3.469446951953614189E-14, 0.000000000000000000, 258.7063328506131938 ) ) ;
#68 = DIRECTION ( 'NONE',  ( 0.000000000000000000, 0.000000000000000000, 1.000000000000000000 ) ) ;
#69 = FACE_OUTER_BOUND ( 'NONE', #111, .T. ) ;
#70 = DATE_AND_TIME ( #4, #126 ) ;
#71 = CC_DESIGN_SECURITY_CLASSIFICATION ( #66, ( #22 ) ) ;
#72 = PERSON_AND_ORGANIZATION ( #196, #103 ) ;
#73 = PERSON_AND_ORGANIZATION_ROLE ( 'classification_officer' ) ;
#74 = DATE_AND_TIME ( #121, #199 ) ;
#75 = PERSON_AND_ORGANIZATION ( #196, #103 ) ;
#76 = CIRCLE ( 'NONE', #201, 250.0000000000000000 ) ;
#77 = ORIENTED_EDGE ( 'NONE', *, *, #150, .T. ) ;
#78 = ORIENTED_EDGE ( 'NONE', *, *, #98, .T. ) ;
#79 = PRODUCT_DEFINITION ( 'UNKNOWN', '', #22, #122 ) ;
#80 = ORIENTED_EDGE ( 'NONE', *, *, #98, .F. ) ;
#81 = ORIENTED_EDGE ( 'NONE', *, *, #136, .T. ) ;
#82 = VECTOR ( 'NONE', #84, 1000.000000000000000 ) ;
#83 = CARTESIAN_POINT ( 'NONE',  ( 3.469446951953614189E-14, 0.000000000000000000, 10.00000000000000888 ) ) ;
#84 = DIRECTION ( 'NONE',  ( -0.000000000000000000, -0.000000000000000000, -1.000000000000000000 ) ) ;
#85 =( NAMED_UNIT ( * ) PLANE_ANGLE_UNIT ( ) SI_UNIT ( $, .RADIAN. ) );
#86 = CARTESIAN_POINT ( 'NONE',  ( 0.000000000000000000, 0.000000000000000000, 10.00000000000000000 ) ) ;
#87 = APPLICATION_PROTOCOL_DEFINITION ( 'international standard', 'config_control_design', 1994, #29 ) ;
#88 = APPROVAL_DATE_TIME ( #70, #5 ) ;
#89 = DATE_TIME_ROLE ( 'classification_date' ) ;
#90 = ADVANCED_FACE ( 'NONE', ( #115 ), #191, .F. ) ;
#91 = PERSON_AND_ORGANIZATION_ROLE ( 'creator' ) ;
#92 = UNCERTAINTY_MEASURE_WITH_UNIT (LENGTH_MEASURE( 1.000000000000000082E-05 ), #175, 'distance_accuracy_value', 'NONE');
#93 = VECTOR ( 'NONE', #41, 1000.000000000000000 ) ;
#94 = APPROVAL_PERSON_ORGANIZATION ( #43, #130, #162 ) ;
#95 = EDGE_LOOP ( 'NONE', ( #81, #77, #168, #65 ) ) ;
#96 = CC_DESIGN_PERSON_AND_ORGANIZATION_ASSIGNMENT ( #180, #91, ( #22 ) ) ;
#97 = EDGE_LOOP ( 'NONE', ( #125, #78, #13 ) ) ;
#98 = EDGE_CURVE ( 'NONE', #185, #23, #76, .T. ) ;
#99 = DIRECTION ( 'NONE',  ( 1.000000000000000000, 0.000000000000000000, -0.000000000000000000 ) ) ;
#100 = DIRECTION ( 'NONE',  ( -0.000000000000000000, -0.000000000000000000, -1.000000000000000000 ) ) ;
#101 = SPHERICAL_SURFACE ( 'NONE', #179, 250.0000000000000000 ) ;
#102 = DIRECTION ( 'NONE',  ( 1.000000000000000000, 1.224646799147353207E-16, 0.000000000000000000 ) ) ;
#103 = ORGANIZATION ( 'UNSPECIFIED', 'UNSPECIFIED', '' ) ;
#104 = LINE ( 'NONE', #160, #93 ) ;
#105 = ADVANCED_FACE ( 'NONE', ( #174 ), #3, .F. ) ;
#106 = AXIS2_PLACEMENT_3D ( 'NONE', #188, #131, #99 ) ;
#107 = MECHANICAL_CONTEXT ( 'NONE', #61, 'mechanical' ) ;
#108 = APPROVAL_STATUS ( 'not_yet_approved' ) ;
#109 = APPROVAL_ROLE ( '' ) ;
#110 = DATE_AND_TIME ( #195, #30 ) ;
#111 = EDGE_LOOP ( 'NONE', ( #124, #169, #158, #48 ) ) ;
#112 = CC_DESIGN_APPROVAL ( #5, ( #79 ) ) ;
#113 = CARTESIAN_POINT ( 'NONE',  ( 25.39999999999999858, 3.110602869834276865E-15, 0.000000000000000000 ) ) ;
#114 = DIRECTION ( 'NONE',  ( -0.000000000000000000, -0.000000000000000000, -1.000000000000000000 ) ) ;
#115 = FACE_OUTER_BOUND ( 'NONE', #38, .T. ) ;
#116 = DIRECTION ( 'NONE',  ( -0.000000000000000000, -0.000000000000000000, -1.000000000000000000 ) ) ;
#117 = CLOSED_SHELL ( 'NONE', ( #184, #52, #8, #105, #90 ) ) ;
#118 = DATE_AND_TIME ( #57, #14 ) ;
#119 = EDGE_CURVE ( 'NONE', #127, #185, #167, .T. ) ;
#120 = CC_DESIGN_APPROVAL ( #59, ( #66 ) ) ;
#121 = CALENDAR_DATE ( 2021, 25, 2 ) ;
#122 = DESIGN_CONTEXT ( 'detailed design', #29, 'design' ) ;
#123 = LOCAL_TIME ( 15, 28, 54.00000000000000000, #146 ) ;
#124 = ORIENTED_EDGE ( 'NONE', *, *, #150, .F. ) ;
#125 = ORIENTED_EDGE ( 'NONE', *, *, #136, .F. ) ;
#126 = LOCAL_TIME ( 15, 28, 54.00000000000000000, #143 ) ;
#127 = VERTEX_POINT ( 'NONE', #36 ) ;
#128 = DATE_AND_TIME ( #7, #123 ) ;
#129 = CARTESIAN_POINT ( 'NONE',  ( 3.469446951953614189E-14, 0.000000000000000000, 258.7063328506131938 ) ) ;
#130 = APPROVAL ( #108, 'UNSPECIFIED' ) ;
#131 = DIRECTION ( 'NONE',  ( 0.000000000000000000, 0.000000000000000000, 1.000000000000000000 ) ) ;
#132 = CARTESIAN_POINT ( 'NONE',  ( 3.469446951953614189E-14, 0.000000000000000000, 258.7063328506131938 ) ) ;
#133 = AXIS2_PLACEMENT_3D ( 'NONE', #67, #154, #140 ) ;
#134 = ADVANCED_BREP_SHAPE_REPRESENTATION ( '010-1503E_UVFS_PCV_window', ( #165, #9 ), #58 ) ;
#135 = APPROVAL_STATUS ( 'not_yet_approved' ) ;
#136 = EDGE_CURVE ( 'NONE', #185, #127, #63, .T. ) ;
#137 = ORIENTED_EDGE ( 'NONE', *, *, #171, .F. ) ;
#138 = DIRECTION ( 'NONE',  ( 0.000000000000000000, 1.000000000000000000, -0.000000000000000000 ) ) ;
#139 = DIRECTION ( 'NONE',  ( 1.000000000000000000, 0.000000000000000000, 0.000000000000000000 ) ) ;
#140 = DIRECTION ( 'NONE',  ( 1.000000000000000000, 0.000000000000000000, 0.000000000000000000 ) ) ;
#141 = PRODUCT_RELATED_PRODUCT_CATEGORY ( 'detail', '', ( #24 ) ) ;
#142 = DIRECTION ( 'NONE',  ( 0.000000000000000000, 0.000000000000000000, 1.000000000000000000 ) ) ;
#143 = COORDINATED_UNIVERSAL_TIME_OFFSET ( 2, 0, .AHEAD. ) ;
#144 = DIRECTION ( 'NONE',  ( 0.000000000000000000, 0.000000000000000000, 1.000000000000000000 ) ) ;
#145 = APPROVAL_STATUS ( 'not_yet_approved' ) ;
#146 = COORDINATED_UNIVERSAL_TIME_OFFSET ( 2, 0, .AHEAD. ) ;
#147 = CC_DESIGN_DATE_AND_TIME_ASSIGNMENT ( #74, #89, ( #66 ) ) ;
#148 = PERSON_AND_ORGANIZATION ( #196, #103 ) ;
#149 = AXIS2_PLACEMENT_3D ( 'NONE', #86, #116, #50 ) ;
#150 = EDGE_CURVE ( 'NONE', #127, #34, #1, .T. ) ;
#151 = CC_DESIGN_APPROVAL ( #130, ( #22 ) ) ;
#152 = ORIENTED_EDGE ( 'NONE', *, *, #187, .F. ) ;
#153 = APPROVAL_PERSON_ORGANIZATION ( #25, #5, #27 ) ;
#154 = DIRECTION ( 'NONE',  ( 0.000000000000000000, -1.000000000000000000, -0.000000000000000000 ) ) ;
#155 = DIRECTION ( 'NONE',  ( -0.000000000000000000, -0.000000000000000000, -1.000000000000000000 ) ) ;
#156 = CARTESIAN_POINT ( 'NONE',  ( 25.39999999999999858, 3.110602869834276865E-15, 10.00000000000000000 ) ) ;
#157 = DIRECTION ( 'NONE',  ( 0.000000000000000000, -1.000000000000000000, -0.000000000000000000 ) ) ;
#158 = ORIENTED_EDGE ( 'NONE', *, *, #166, .T. ) ;
#159 = CARTESIAN_POINT ( 'NONE',  ( 0.000000000000000000, 0.000000000000000000, 0.000000000000000000 ) ) ;
#160 = CARTESIAN_POINT ( 'NONE',  ( -25.39999999999999858, 0.000000000000000000, 10.00000000000000000 ) ) ;
#161 = PERSON_AND_ORGANIZATION ( #196, #103 ) ;
#162 = APPROVAL_ROLE ( '' ) ;
#163 = CC_DESIGN_PERSON_AND_ORGANIZATION_ASSIGNMENT ( #75, #73, ( #66 ) ) ;
#164 = COORDINATED_UNIVERSAL_TIME_OFFSET ( 2, 0, .AHEAD. ) ;
#165 = MANIFOLD_SOLID_BREP ( 'Cut-Revolve1', #117 ) ;
#166 = EDGE_CURVE ( 'NONE', #185, #64, #104, .T. ) ;
#167 = CIRCLE ( 'NONE', #186, 25.40000000000024727 ) ;
#168 = ORIENTED_EDGE ( 'NONE', *, *, #171, .T. ) ;
#169 = ORIENTED_EDGE ( 'NONE', *, *, #119, .T. ) ;
#170 = DIRECTION ( 'NONE',  ( 1.224646799147353207E-16, -1.000000000000000000, 0.000000000000000000 ) ) ;
#171 = EDGE_CURVE ( 'NONE', #34, #64, #33, .T. ) ;
#172 = CARTESIAN_POINT ( 'NONE',  ( 3.469446951953614189E-14, 0.000000000000000000, 10.00000000000000888 ) ) ;
#173 =( NAMED_UNIT ( * ) SI_UNIT ( $, .STERADIAN. ) SOLID_ANGLE_UNIT ( ) );
#174 = FACE_OUTER_BOUND ( 'NONE', #198, .T. ) ;
#175 =( LENGTH_UNIT ( ) NAMED_UNIT ( * ) SI_UNIT ( .MILLI., .METRE. ) );
#176 = DIRECTION ( 'NONE',  ( 1.000000000000000000, 0.000000000000000000, 0.000000000000000000 ) ) ;
#177 = AXIS2_PLACEMENT_3D ( 'NONE', #83, #114, #139 ) ;
#178 = DATE_TIME_ROLE ( 'creation_date' ) ;
#179 = AXIS2_PLACEMENT_3D ( 'NONE', #132, #157, #26 ) ;
#180 = PERSON_AND_ORGANIZATION ( #196, #103 ) ;
#181 = SHAPE_DEFINITION_REPRESENTATION ( #55, #134 ) ;
#182 = APPROVAL_DATE_TIME ( #128, #130 ) ;
#183 = APPROVAL_PERSON_ORGANIZATION ( #46, #59, #109 ) ;
#184 = ADVANCED_FACE ( 'NONE', ( #190 ), #101, .F. ) ;
#185 = VERTEX_POINT ( 'NONE', #37 ) ;
#186 = AXIS2_PLACEMENT_3D ( 'NONE', #172, #155, #18 ) ;
#187 = EDGE_CURVE ( 'NONE', #64, #34, #62, .T. ) ;
#188 = CARTESIAN_POINT ( 'NONE',  ( 0.000000000000000000, 0.000000000000000000, 0.000000000000000000 ) ) ;
#189 = CARTESIAN_POINT ( 'NONE',  ( 0.000000000000000000, 0.000000000000000000, 0.000000000000000000 ) ) ;
#190 = FACE_OUTER_BOUND ( 'NONE', #97, .T. ) ;
#191 = SPHERICAL_SURFACE ( 'NONE', #133, 250.0000000000000000 ) ;
#192 = DIRECTION ( 'NONE',  ( 0.000000000000000000, 0.000000000000000000, 1.000000000000000000 ) ) ;
#193 = COORDINATED_UNIVERSAL_TIME_OFFSET ( 2, 0, .AHEAD. ) ;
#194 = AXIS2_PLACEMENT_3D ( 'NONE', #51, #144, #56 ) ;
#195 = CALENDAR_DATE ( 2021, 25, 2 ) ;
#196 = PERSON ( 'UNSPECIFIED', 'UNSPECIFIED', 'UNSPECIFIED', ('UNSPECIFIED'), ('UNSPECIFIED'), ('UNSPECIFIED') ) ;
#197 = CC_DESIGN_PERSON_AND_ORGANIZATION_ASSIGNMENT ( #72, #6, ( #79 ) ) ;
#198 = EDGE_LOOP ( 'NONE', ( #152, #137 ) ) ;
#199 = LOCAL_TIME ( 15, 28, 54.00000000000000000, #11 ) ;
#200 = CARTESIAN_POINT ( 'NONE',  ( -25.39999999999999858, 0.000000000000000000, 0.000000000000000000 ) ) ;
#201 = AXIS2_PLACEMENT_3D ( 'NONE', #49, #170, #102 ) ;
ENDSEC;
END-ISO-10303-21;
