ISO-10303-21;
HEADER;
FILE_DESCRIPTION (( 'STEP AP203' ),
    '1' );
FILE_NAME ('010-1502E_UVFS_PCV_window.STEP',
    '2021-02-25T13:28:36',
    ( '' ),
    ( '' ),
    'SwSTEP 2.0',
    'SolidWorks 2019',
    '' );
FILE_SCHEMA (( 'CONFIG_CONTROL_DESIGN' ));
ENDSEC;

DATA;
#1 = CYLINDRICAL_SURFACE ( 'NONE', #104, 25.39999999999999858 ) ;
#2 = DIRECTION ( 'NONE',  ( -0.000000000000000000, -0.000000000000000000, -1.000000000000000000 ) ) ;
#3 = CC_DESIGN_APPROVAL ( #115, ( #177 ) ) ;
#4 = DIRECTION ( 'NONE',  ( 1.000000000000000000, 0.000000000000000000, 0.000000000000000000 ) ) ;
#5 = APPLICATION_CONTEXT ( 'configuration controlled 3d designs of mechanical parts and assemblies' ) ;
#6 = DIRECTION ( 'NONE',  ( 1.000000000000000000, 0.000000000000000000, 0.000000000000000000 ) ) ;
#7 = EDGE_CURVE ( 'NONE', #146, #95, #83, .T. ) ;
#8 =( LENGTH_UNIT ( ) NAMED_UNIT ( * ) SI_UNIT ( .MILLI., .METRE. ) );
#9 = AXIS2_PLACEMENT_3D ( 'NONE', #17, #35, #187 ) ;
#10 = CIRCLE ( 'NONE', #57, 25.39999999999999858 ) ;
#11 = COORDINATED_UNIVERSAL_TIME_OFFSET ( 2, 0, .AHEAD. ) ;
#12 = PRODUCT_RELATED_PRODUCT_CATEGORY ( 'detail', '', ( #67 ) ) ;
#13 = APPROVAL_DATE_TIME ( #143, #115 ) ;
#14 = ORIENTED_EDGE ( 'NONE', *, *, #74, .T. ) ;
#15 = CIRCLE ( 'NONE', #9, 199.9999999999999432 ) ;
#16 = DIRECTION ( 'NONE',  ( -0.000000000000000000, -0.000000000000000000, -1.000000000000000000 ) ) ;
#17 = CARTESIAN_POINT ( 'NONE',  ( 2.775557561562891351E-14, 0.000000000000000000, 208.3805434008083637 ) ) ;
#18 = ORIENTED_EDGE ( 'NONE', *, *, #145, .F. ) ;
#19 = FACE_OUTER_BOUND ( 'NONE', #130, .T. ) ;
#20 = DIRECTION ( 'NONE',  ( 1.000000000000000000, 0.000000000000000000, 0.000000000000000000 ) ) ;
#21 = UNCERTAINTY_MEASURE_WITH_UNIT (LENGTH_MEASURE( 1.000000000000000082E-05 ), #8, 'distance_accuracy_value', 'NONE');
#22 = APPROVAL_ROLE ( '' ) ;
#23 = DIRECTION ( 'NONE',  ( -1.000000000000000000, 0.000000000000000000, 0.000000000000000000 ) ) ;
#24 = ADVANCED_BREP_SHAPE_REPRESENTATION ( '010-1502E_UVFS_PCV_window', ( #113, #62 ), #139 ) ;
#25 = CYLINDRICAL_SURFACE ( 'NONE', #81, 25.39999999999999858 ) ;
#26 = DATE_AND_TIME ( #42, #89 ) ;
#27 = CC_DESIGN_PERSON_AND_ORGANIZATION_ASSIGNMENT ( #61, #192, ( #177 ) ) ;
#28 = AXIS2_PLACEMENT_3D ( 'NONE', #82, #186, #114 ) ;
#29 = CALENDAR_DATE ( 2021, 25, 2 ) ;
#30 = EDGE_LOOP ( 'NONE', ( #18, #31 ) ) ;
#31 = ORIENTED_EDGE ( 'NONE', *, *, #172, .F. ) ;
#32 = CARTESIAN_POINT ( 'NONE',  ( 25.39999999999999858, 3.110602869834276865E-15, 0.000000000000000000 ) ) ;
#33 = DIRECTION ( 'NONE',  ( 0.000000000000000000, 0.000000000000000000, 1.000000000000000000 ) ) ;
#34 = CC_DESIGN_APPROVAL ( #78, ( #109 ) ) ;
#35 = DIRECTION ( 'NONE',  ( 0.000000000000000000, 1.000000000000000000, -0.000000000000000000 ) ) ;
#36 = PRODUCT_DEFINITION_SHAPE ( 'NONE', 'NONE',  #142 ) ;
#37 = EDGE_LOOP ( 'NONE', ( #200, #43, #133 ) ) ;
#38 = AXIS2_PLACEMENT_3D ( 'NONE', #136, #137, #173 ) ;
#39 = DIRECTION ( 'NONE',  ( -0.000000000000000000, -0.000000000000000000, -1.000000000000000000 ) ) ;
#40 = EDGE_CURVE ( 'NONE', #184, #146, #52, .T. ) ;
#41 = LOCAL_TIME ( 15, 28, 36.00000000000000000, #11 ) ;
#42 = CALENDAR_DATE ( 2021, 25, 2 ) ;
#43 = ORIENTED_EDGE ( 'NONE', *, *, #40, .F. ) ;
#44 = DIRECTION ( 'NONE',  ( 0.000000000000000000, 0.000000000000000000, 1.000000000000000000 ) ) ;
#45 = VERTEX_POINT ( 'NONE', #32 ) ;
#46 = CLOSED_SHELL ( 'NONE', ( #63, #183, #92, #94, #112 ) ) ;
#47 = DATE_AND_TIME ( #29, #138 ) ;
#48 = ORIENTED_EDGE ( 'NONE', *, *, #7, .T. ) ;
#49 = ORIENTED_EDGE ( 'NONE', *, *, #175, .F. ) ;
#50 = DIRECTION ( 'NONE',  ( 0.000000000000000000, 0.000000000000000000, 1.000000000000000000 ) ) ;
#51 = CARTESIAN_POINT ( 'NONE',  ( 2.775557561562891351E-14, 0.000000000000000000, 10.00000000000000888 ) ) ;
#52 = CIRCLE ( 'NONE', #28, 25.39999999999970370 ) ;
#53 = CARTESIAN_POINT ( 'NONE',  ( 0.000000000000000000, 0.000000000000000000, 10.00000000000000000 ) ) ;
#54 = DIRECTION ( 'NONE',  ( 0.000000000000000000, 0.000000000000000000, 1.000000000000000000 ) ) ;
#55 =( NAMED_UNIT ( * ) SI_UNIT ( $, .STERADIAN. ) SOLID_ANGLE_UNIT ( ) );
#56 = SECURITY_CLASSIFICATION_LEVEL ( 'unclassified' ) ;
#57 = AXIS2_PLACEMENT_3D ( 'NONE', #185, #50, #105 ) ;
#58 = APPROVAL_DATE_TIME ( #124, #78 ) ;
#59 = PERSON_AND_ORGANIZATION ( #119, #158 ) ;
#60 = ORIENTED_EDGE ( 'NONE', *, *, #172, .T. ) ;
#61 = PERSON_AND_ORGANIZATION ( #119, #158 ) ;
#62 = AXIS2_PLACEMENT_3D ( 'NONE', #131, #44, #196 ) ;
#63 = ADVANCED_FACE ( 'NONE', ( #19 ), #86, .F. ) ;
#64 = ORIENTED_EDGE ( 'NONE', *, *, #175, .T. ) ;
#65 = CARTESIAN_POINT ( 'NONE',  ( 0.000000000000000000, 0.000000000000000000, 0.000000000000000000 ) ) ;
#66 = CARTESIAN_POINT ( 'NONE',  ( -25.39999999999999858, 0.000000000000000000, 10.00000000000000000 ) ) ;
#67 = PRODUCT ( '010-1502E_UVFS_PCV_window', '010-1502E_UVFS_PCV_window', '', ( #129 ) ) ;
#68 = CIRCLE ( 'NONE', #201, 199.9999999999999716 ) ;
#69 = FACE_OUTER_BOUND ( 'NONE', #30, .T. ) ;
#70 = CARTESIAN_POINT ( 'NONE',  ( 4.000204360710244095E-14, 0.000000000000000000, 8.380543400808376120 ) ) ;
#71 = FACE_OUTER_BOUND ( 'NONE', #111, .T. ) ;
#72 = SHAPE_DEFINITION_REPRESENTATION ( #36, #24 ) ;
#73 = LOCAL_TIME ( 15, 28, 36.00000000000000000, #166 ) ;
#74 = EDGE_CURVE ( 'NONE', #146, #150, #68, .T. ) ;
#75 = PERSON_AND_ORGANIZATION ( #119, #158 ) ;
#76 = APPROVAL_STATUS ( 'not_yet_approved' ) ;
#77 = PERSON_AND_ORGANIZATION ( #119, #158 ) ;
#78 = APPROVAL ( #195, 'UNSPECIFIED' ) ;
#79 = ORIENTED_EDGE ( 'NONE', *, *, #128, .F. ) ;
#80 = DIRECTION ( 'NONE',  ( -1.000000000000000000, 0.000000000000000000, 0.000000000000000000 ) ) ;
#81 = AXIS2_PLACEMENT_3D ( 'NONE', #91, #39, #23 ) ;
#82 = CARTESIAN_POINT ( 'NONE',  ( 2.775557561562891351E-14, 0.000000000000000000, 10.00000000000000888 ) ) ;
#83 = LINE ( 'NONE', #66, #189 ) ;
#84 = CC_DESIGN_PERSON_AND_ORGANIZATION_ASSIGNMENT ( #75, #141, ( #142 ) ) ;
#85 = CARTESIAN_POINT ( 'NONE',  ( 2.775557561562891351E-14, 0.000000000000000000, 208.3805434008083637 ) ) ;
#86 = SPHERICAL_SURFACE ( 'NONE', #38, 199.9999999999999716 ) ;
#87 = CC_DESIGN_DATE_AND_TIME_ASSIGNMENT ( #121, #103, ( #109 ) ) ;
#88 = PERSON_AND_ORGANIZATION ( #119, #158 ) ;
#89 = LOCAL_TIME ( 15, 28, 36.00000000000000000, #127 ) ;
#90 = PERSON_AND_ORGANIZATION ( #119, #158 ) ;
#91 = CARTESIAN_POINT ( 'NONE',  ( 0.000000000000000000, 0.000000000000000000, 10.00000000000000000 ) ) ;
#92 = ADVANCED_FACE ( 'NONE', ( #160 ), #1, .T. ) ;
#93 = CIRCLE ( 'NONE', #100, 25.39999999999970370 ) ;
#94 = ADVANCED_FACE ( 'NONE', ( #69 ), #163, .F. ) ;
#95 = VERTEX_POINT ( 'NONE', #118 ) ;
#96 = DIRECTION ( 'NONE',  ( 1.000000000000000000, 0.000000000000000000, -0.000000000000000000 ) ) ;
#97 = EDGE_LOOP ( 'NONE', ( #49, #135, #48, #180 ) ) ;
#98 = SPHERICAL_SURFACE ( 'NONE', #178, 199.9999999999999716 ) ;
#99 = CARTESIAN_POINT ( 'NONE',  ( 2.775557561562891351E-14, 0.000000000000000000, 208.3805434008083637 ) ) ;
#100 = AXIS2_PLACEMENT_3D ( 'NONE', #51, #116, #4 ) ;
#101 = CC_DESIGN_PERSON_AND_ORGANIZATION_ASSIGNMENT ( #77, #197, ( #177 ) ) ;
#102 = CARTESIAN_POINT ( 'NONE',  ( 25.39999999999999858, 3.110602869834276865E-15, 10.00000000000000000 ) ) ;
#103 = DATE_TIME_ROLE ( 'classification_date' ) ;
#104 = AXIS2_PLACEMENT_3D ( 'NONE', #53, #16, #80 ) ;
#105 = DIRECTION ( 'NONE',  ( 1.000000000000000000, 0.000000000000000000, 0.000000000000000000 ) ) ;
#106 = PERSON_AND_ORGANIZATION_ROLE ( 'classification_officer' ) ;
#107 = COORDINATED_UNIVERSAL_TIME_OFFSET ( 2, 0, .AHEAD. ) ;
#108 = PERSON_AND_ORGANIZATION_ROLE ( 'design_owner' ) ;
#109 = SECURITY_CLASSIFICATION ( '', '', #56 ) ;
#110 = APPROVAL_DATE_TIME ( #47, #154 ) ;
#111 = EDGE_LOOP ( 'NONE', ( #164, #64, #60, #149 ) ) ;
#112 = ADVANCED_FACE ( 'NONE', ( #148 ), #98, .F. ) ;
#113 = MANIFOLD_SOLID_BREP ( 'Cut-Revolve1', #46 ) ;
#114 = DIRECTION ( 'NONE',  ( 1.000000000000000000, 0.000000000000000000, 0.000000000000000000 ) ) ;
#115 = APPROVAL ( #179, 'UNSPECIFIED' ) ;
#116 = DIRECTION ( 'NONE',  ( -0.000000000000000000, -0.000000000000000000, -1.000000000000000000 ) ) ;
#117 = AXIS2_PLACEMENT_3D ( 'NONE', #191, #54, #20 ) ;
#118 = CARTESIAN_POINT ( 'NONE',  ( -25.39999999999999858, 0.000000000000000000, 0.000000000000000000 ) ) ;
#119 = PERSON ( 'UNSPECIFIED', 'UNSPECIFIED', 'UNSPECIFIED', ('UNSPECIFIED'), ('UNSPECIFIED'), ('UNSPECIFIED') ) ;
#120 = EDGE_CURVE ( 'NONE', #184, #150, #15, .T. ) ;
#121 = DATE_AND_TIME ( #140, #126 ) ;
#122 = CIRCLE ( 'NONE', #117, 25.39999999999999858 ) ;
#123 =( NAMED_UNIT ( * ) PLANE_ANGLE_UNIT ( ) SI_UNIT ( $, .RADIAN. ) );
#124 = DATE_AND_TIME ( #193, #73 ) ;
#125 = DIRECTION ( 'NONE',  ( -0.000000000000000000, -0.000000000000000000, -1.000000000000000000 ) ) ;
#126 = LOCAL_TIME ( 15, 28, 36.00000000000000000, #152 ) ;
#127 = COORDINATED_UNIVERSAL_TIME_OFFSET ( 2, 0, .AHEAD. ) ;
#128 = EDGE_CURVE ( 'NONE', #146, #184, #93, .T. ) ;
#129 = MECHANICAL_CONTEXT ( 'NONE', #5, 'mechanical' ) ;
#130 = EDGE_LOOP ( 'NONE', ( #79, #14, #199 ) ) ;
#131 = CARTESIAN_POINT ( 'NONE',  ( 0.000000000000000000, 0.000000000000000000, 0.000000000000000000 ) ) ;
#132 = CC_DESIGN_APPROVAL ( #154, ( #142 ) ) ;
#133 = ORIENTED_EDGE ( 'NONE', *, *, #120, .T. ) ;
#134 = APPROVAL_PERSON_ORGANIZATION ( #59, #154, #170 ) ;
#135 = ORIENTED_EDGE ( 'NONE', *, *, #40, .T. ) ;
#136 = CARTESIAN_POINT ( 'NONE',  ( 2.775557561562891351E-14, 0.000000000000000000, 208.3805434008083637 ) ) ;
#137 = DIRECTION ( 'NONE',  ( 0.000000000000000000, -1.000000000000000000, -0.000000000000000000 ) ) ;
#138 = LOCAL_TIME ( 15, 28, 36.00000000000000000, #107 ) ;
#139 =( GEOMETRIC_REPRESENTATION_CONTEXT ( 3 ) GLOBAL_UNCERTAINTY_ASSIGNED_CONTEXT ( ( #21 ) ) GLOBAL_UNIT_ASSIGNED_CONTEXT ( ( #8, #123, #55 ) ) REPRESENTATION_CONTEXT ( 'NONE', 'WORKASPACE' ) );
#140 = CALENDAR_DATE ( 2021, 25, 2 ) ;
#141 = PERSON_AND_ORGANIZATION_ROLE ( 'creator' ) ;
#142 = PRODUCT_DEFINITION ( 'UNKNOWN', '', #177, #153 ) ;
#143 = DATE_AND_TIME ( #198, #41 ) ;
#144 = APPROVAL_ROLE ( '' ) ;
#145 = EDGE_CURVE ( 'NONE', #95, #45, #122, .T. ) ;
#146 = VERTEX_POINT ( 'NONE', #151 ) ;
#147 = AXIS2_PLACEMENT_3D ( 'NONE', #65, #33, #96 ) ;
#148 = FACE_OUTER_BOUND ( 'NONE', #37, .T. ) ;
#149 = ORIENTED_EDGE ( 'NONE', *, *, #7, .F. ) ;
#150 = VERTEX_POINT ( 'NONE', #70 ) ;
#151 = CARTESIAN_POINT ( 'NONE',  ( -25.39999999999967528, 0.000000000000000000, 10.00000000000000888 ) ) ;
#152 = COORDINATED_UNIVERSAL_TIME_OFFSET ( 2, 0, .AHEAD. ) ;
#153 = DESIGN_CONTEXT ( 'detailed design', #161, 'design' ) ;
#154 = APPROVAL ( #76, 'UNSPECIFIED' ) ;
#155 = CC_DESIGN_SECURITY_CLASSIFICATION ( #109, ( #177 ) ) ;
#156 = PERSON_AND_ORGANIZATION ( #119, #158 ) ;
#157 = DATE_TIME_ROLE ( 'creation_date' ) ;
#158 = ORGANIZATION ( 'UNSPECIFIED', 'UNSPECIFIED', '' ) ;
#159 = CC_DESIGN_PERSON_AND_ORGANIZATION_ASSIGNMENT ( #90, #106, ( #109 ) ) ;
#160 = FACE_OUTER_BOUND ( 'NONE', #97, .T. ) ;
#161 = APPLICATION_CONTEXT ( 'configuration controlled 3d designs of mechanical parts and assemblies' ) ;
#162 = APPROVAL_PERSON_ORGANIZATION ( #88, #78, #22 ) ;
#163 = PLANE ( 'NONE',  #147 ) ;
#164 = ORIENTED_EDGE ( 'NONE', *, *, #128, .T. ) ;
#165 = APPLICATION_PROTOCOL_DEFINITION ( 'international standard', 'config_control_design', 1994, #5 ) ;
#166 = COORDINATED_UNIVERSAL_TIME_OFFSET ( 2, 0, .AHEAD. ) ;
#167 = LINE ( 'NONE', #102, #169 ) ;
#168 = APPLICATION_PROTOCOL_DEFINITION ( 'international standard', 'config_control_design', 1994, #161 ) ;
#169 = VECTOR ( 'NONE', #125, 1000.000000000000000 ) ;
#170 = APPROVAL_ROLE ( '' ) ;
#171 = CC_DESIGN_PERSON_AND_ORGANIZATION_ASSIGNMENT ( #182, #108, ( #67 ) ) ;
#172 = EDGE_CURVE ( 'NONE', #45, #95, #10, .T. ) ;
#173 = DIRECTION ( 'NONE',  ( 1.000000000000000000, 0.000000000000000000, 0.000000000000000000 ) ) ;
#174 = DIRECTION ( 'NONE',  ( 1.000000000000000000, 1.224646799147353207E-16, 0.000000000000000000 ) ) ;
#175 = EDGE_CURVE ( 'NONE', #184, #45, #167, .T. ) ;
#176 = DIRECTION ( 'NONE',  ( 0.000000000000000000, -1.000000000000000000, -0.000000000000000000 ) ) ;
#177 = PRODUCT_DEFINITION_FORMATION_WITH_SPECIFIED_SOURCE ( 'ANY', '', #67, .NOT_KNOWN. ) ;
#178 = AXIS2_PLACEMENT_3D ( 'NONE', #85, #176, #6 ) ;
#179 = APPROVAL_STATUS ( 'not_yet_approved' ) ;
#180 = ORIENTED_EDGE ( 'NONE', *, *, #145, .T. ) ;
#181 = APPROVAL_PERSON_ORGANIZATION ( #156, #115, #144 ) ;
#182 = PERSON_AND_ORGANIZATION ( #119, #158 ) ;
#183 = ADVANCED_FACE ( 'NONE', ( #71 ), #25, .T. ) ;
#184 = VERTEX_POINT ( 'NONE', #194 ) ;
#185 = CARTESIAN_POINT ( 'NONE',  ( 0.000000000000000000, 0.000000000000000000, 0.000000000000000000 ) ) ;
#186 = DIRECTION ( 'NONE',  ( -0.000000000000000000, -0.000000000000000000, -1.000000000000000000 ) ) ;
#187 = DIRECTION ( 'NONE',  ( 0.000000000000000000, 0.000000000000000000, 1.000000000000000000 ) ) ;
#188 = CC_DESIGN_DATE_AND_TIME_ASSIGNMENT ( #26, #157, ( #142 ) ) ;
#189 = VECTOR ( 'NONE', #2, 1000.000000000000000 ) ;
#190 = DIRECTION ( 'NONE',  ( 1.224646799147353207E-16, -1.000000000000000000, 0.000000000000000000 ) ) ;
#191 = CARTESIAN_POINT ( 'NONE',  ( 0.000000000000000000, 0.000000000000000000, 0.000000000000000000 ) ) ;
#192 = PERSON_AND_ORGANIZATION_ROLE ( 'design_supplier' ) ;
#193 = CALENDAR_DATE ( 2021, 25, 2 ) ;
#194 = CARTESIAN_POINT ( 'NONE',  ( 25.39999999999973213, 3.110602869834260299E-15, 10.00000000000000888 ) ) ;
#195 = APPROVAL_STATUS ( 'not_yet_approved' ) ;
#196 = DIRECTION ( 'NONE',  ( 1.000000000000000000, 0.000000000000000000, 0.000000000000000000 ) ) ;
#197 = PERSON_AND_ORGANIZATION_ROLE ( 'creator' ) ;
#198 = CALENDAR_DATE ( 2021, 25, 2 ) ;
#199 = ORIENTED_EDGE ( 'NONE', *, *, #120, .F. ) ;
#200 = ORIENTED_EDGE ( 'NONE', *, *, #74, .F. ) ;
#201 = AXIS2_PLACEMENT_3D ( 'NONE', #99, #190, #174 ) ;
ENDSEC;
END-ISO-10303-21;
