ISO-10303-21;
HEADER;
FILE_DESCRIPTION (( 'STEP AP203' ),
    '1' );
FILE_NAME ('010-1501E_UVFS_PCV_window.STEP',
    '2021-02-25T13:28:17',
    ( '' ),
    ( '' ),
    'SwSTEP 2.0',
    'SolidWorks 2019',
    '' );
FILE_SCHEMA (( 'CONFIG_CONTROL_DESIGN' ));
ENDSEC;

DATA;
#1 = CC_DESIGN_PERSON_AND_ORGANIZATION_ASSIGNMENT ( #181, #69, ( #83 ) ) ;
#2 = APPROVAL_PERSON_ORGANIZATION ( #165, #110, #51 ) ;
#3 = DIRECTION ( 'NONE',  ( 1.000000000000000000, 0.000000000000000000, 0.000000000000000000 ) ) ;
#4 = CARTESIAN_POINT ( 'NONE',  ( 2.000102180355122047E-14, 0.000000000000000000, 6.720421835308382441 ) ) ;
#5 = FACE_OUTER_BOUND ( 'NONE', #60, .T. ) ;
#6 = DIRECTION ( 'NONE',  ( -0.000000000000000000, -0.000000000000000000, -1.000000000000000000 ) ) ;
#7 = APPROVAL_DATE_TIME ( #149, #110 ) ;
#8 = CALENDAR_DATE ( 2021, 25, 2 ) ;
#9 = ORIENTED_EDGE ( 'NONE', *, *, #12, .F. ) ;
#10 =( NAMED_UNIT ( * ) SI_UNIT ( $, .STERADIAN. ) SOLID_ANGLE_UNIT ( ) );
#11 = CC_DESIGN_APPROVAL ( #140, ( #83 ) ) ;
#12 = EDGE_CURVE ( 'NONE', #163, #188, #170, .T. ) ;
#13 = CC_DESIGN_DATE_AND_TIME_ASSIGNMENT ( #73, #26, ( #93 ) ) ;
#14 = CARTESIAN_POINT ( 'NONE',  ( 0.000000000000000000, 0.000000000000000000, 10.00000000000000000 ) ) ;
#15 = AXIS2_PLACEMENT_3D ( 'NONE', #182, #77, #155 ) ;
#16 = ORIENTED_EDGE ( 'NONE', *, *, #92, .T. ) ;
#17 = CARTESIAN_POINT ( 'NONE',  ( 1.387778780781445676E-14, 0.000000000000000000, 106.7204218353083860 ) ) ;
#18 = DATE_AND_TIME ( #8, #166 ) ;
#19 = CC_DESIGN_PERSON_AND_ORGANIZATION_ASSIGNMENT ( #68, #53, ( #75 ) ) ;
#20 = CARTESIAN_POINT ( 'NONE',  ( 0.000000000000000000, 0.000000000000000000, 0.000000000000000000 ) ) ;
#21 = ORIENTED_EDGE ( 'NONE', *, *, #154, .F. ) ;
#22 = DIRECTION ( 'NONE',  ( 0.000000000000000000, 0.000000000000000000, 1.000000000000000000 ) ) ;
#23 = DIRECTION ( 'NONE',  ( 1.000000000000000000, 0.000000000000000000, 0.000000000000000000 ) ) ;
#24 = LOCAL_TIME ( 15, 28, 17.00000000000000000, #133 ) ;
#25 = CALENDAR_DATE ( 2021, 25, 2 ) ;
#26 = DATE_TIME_ROLE ( 'classification_date' ) ;
#27 = ADVANCED_FACE ( 'NONE', ( #59 ), #190, .F. ) ;
#28 = AXIS2_PLACEMENT_3D ( 'NONE', #132, #46, #194 ) ;
#29 = CARTESIAN_POINT ( 'NONE',  ( 25.39999999999999858, 3.110602869834276865E-15, 0.000000000000000000 ) ) ;
#30 = ORIENTED_EDGE ( 'NONE', *, *, #55, .T. ) ;
#31 = CC_DESIGN_DATE_AND_TIME_ASSIGNMENT ( #197, #198, ( #83 ) ) ;
#32 = AXIS2_PLACEMENT_3D ( 'NONE', #167, #191, #103 ) ;
#33 = SPHERICAL_SURFACE ( 'NONE', #102, 100.0000000000000000 ) ;
#34 = CARTESIAN_POINT ( 'NONE',  ( 0.000000000000000000, 0.000000000000000000, 10.00000000000000000 ) ) ;
#35 = DIRECTION ( 'NONE',  ( -0.000000000000000000, -0.000000000000000000, -1.000000000000000000 ) ) ;
#36 = ORIENTED_EDGE ( 'NONE', *, *, #55, .F. ) ;
#37 = COORDINATED_UNIVERSAL_TIME_OFFSET ( 2, 0, .AHEAD. ) ;
#38 = CARTESIAN_POINT ( 'NONE',  ( 0.000000000000000000, 0.000000000000000000, 0.000000000000000000 ) ) ;
#39 = CC_DESIGN_PERSON_AND_ORGANIZATION_ASSIGNMENT ( #89, #183, ( #192 ) ) ;
#40 = APPLICATION_CONTEXT ( 'configuration controlled 3d designs of mechanical parts and assemblies' ) ;
#41 = CLOSED_SHELL ( 'NONE', ( #52, #72, #137, #27, #122 ) ) ;
#42 = PERSON_AND_ORGANIZATION_ROLE ( 'classification_officer' ) ;
#43 = CIRCLE ( 'NONE', #28, 25.40000000000004476 ) ;
#44 = DIRECTION ( 'NONE',  ( -0.000000000000000000, -0.000000000000000000, -1.000000000000000000 ) ) ;
#45 = DIRECTION ( 'NONE',  ( 0.000000000000000000, 1.000000000000000000, -0.000000000000000000 ) ) ;
#46 = DIRECTION ( 'NONE',  ( -0.000000000000000000, -0.000000000000000000, -1.000000000000000000 ) ) ;
#47 = AXIS2_PLACEMENT_3D ( 'NONE', #126, #177, #3 ) ;
#48 = ORIENTED_EDGE ( 'NONE', *, *, #12, .T. ) ;
#49 = MECHANICAL_CONTEXT ( 'NONE', #151, 'mechanical' ) ;
#50 = CARTESIAN_POINT ( 'NONE',  ( -25.39999999999999858, 0.000000000000000000, 0.000000000000000000 ) ) ;
#51 = APPROVAL_ROLE ( '' ) ;
#52 = ADVANCED_FACE ( 'NONE', ( #61 ), #142, .F. ) ;
#53 = PERSON_AND_ORGANIZATION_ROLE ( 'creator' ) ;
#54 = COORDINATED_UNIVERSAL_TIME_OFFSET ( 2, 0, .AHEAD. ) ;
#55 = EDGE_CURVE ( 'NONE', #163, #79, #129, .T. ) ;
#56 = VERTEX_POINT ( 'NONE', #29 ) ;
#57 = AXIS2_PLACEMENT_3D ( 'NONE', #17, #196, #176 ) ;
#58 = EDGE_CURVE ( 'NONE', #152, #56, #159, .T. ) ;
#59 = FACE_OUTER_BOUND ( 'NONE', #158, .T. ) ;
#60 = EDGE_LOOP ( 'NONE', ( #97, #16, #189, #21 ) ) ;
#61 = FACE_OUTER_BOUND ( 'NONE', #106, .T. ) ;
#62 = DIRECTION ( 'NONE',  ( 1.000000000000000000, 0.000000000000000000, 0.000000000000000000 ) ) ;
#63 =( LENGTH_UNIT ( ) NAMED_UNIT ( * ) SI_UNIT ( .MILLI., .METRE. ) );
#64 = VECTOR ( 'NONE', #35, 1000.000000000000000 ) ;
#65 = EDGE_LOOP ( 'NONE', ( #113, #9, #30 ) ) ;
#66 = CALENDAR_DATE ( 2021, 25, 2 ) ;
#67 = PRODUCT_RELATED_PRODUCT_CATEGORY ( 'detail', '', ( #192 ) ) ;
#68 = PERSON_AND_ORGANIZATION ( #160, #186 ) ;
#69 = PERSON_AND_ORGANIZATION_ROLE ( 'creator' ) ;
#70 = ORIENTED_EDGE ( 'NONE', *, *, #154, .T. ) ;
#71 = APPROVAL_PERSON_ORGANIZATION ( #162, #140, #150 ) ;
#72 = ADVANCED_FACE ( 'NONE', ( #5 ), #141, .T. ) ;
#73 = DATE_AND_TIME ( #25, #123 ) ;
#74 = PERSON_AND_ORGANIZATION_ROLE ( 'design_supplier' ) ;
#75 = PRODUCT_DEFINITION_FORMATION_WITH_SPECIFIED_SOURCE ( 'ANY', '', #192, .NOT_KNOWN. ) ;
#76 = AXIS2_PLACEMENT_3D ( 'NONE', #95, #45, #164 ) ;
#77 = DIRECTION ( 'NONE',  ( 0.000000000000000000, 0.000000000000000000, 1.000000000000000000 ) ) ;
#78 = LOCAL_TIME ( 15, 28, 17.00000000000000000, #37 ) ;
#79 = VERTEX_POINT ( 'NONE', #4 ) ;
#80 = PRODUCT_DEFINITION_SHAPE ( 'NONE', 'NONE',  #83 ) ;
#81 = DIRECTION ( 'NONE',  ( 0.000000000000000000, -1.000000000000000000, -0.000000000000000000 ) ) ;
#82 = LINE ( 'NONE', #120, #64 ) ;
#83 = PRODUCT_DEFINITION ( 'UNKNOWN', '', #75, #173 ) ;
#84 = CC_DESIGN_APPROVAL ( #174, ( #93 ) ) ;
#85 = ORIENTED_EDGE ( 'NONE', *, *, #58, .T. ) ;
#86 = CALENDAR_DATE ( 2021, 25, 2 ) ;
#87 = APPROVAL_STATUS ( 'not_yet_approved' ) ;
#88 = ADVANCED_BREP_SHAPE_REPRESENTATION ( '010-1501E_UVFS_PCV_window', ( #156, #116 ), #90 ) ;
#89 = PERSON_AND_ORGANIZATION ( #160, #186 ) ;
#90 =( GEOMETRIC_REPRESENTATION_CONTEXT ( 3 ) GLOBAL_UNCERTAINTY_ASSIGNED_CONTEXT ( ( #138 ) ) GLOBAL_UNIT_ASSIGNED_CONTEXT ( ( #63, #104, #10 ) ) REPRESENTATION_CONTEXT ( 'NONE', 'WORKASPACE' ) );
#91 = DATE_AND_TIME ( #171, #139 ) ;
#92 = EDGE_CURVE ( 'NONE', #163, #56, #94, .T. ) ;
#93 = SECURITY_CLASSIFICATION ( '', '', #105 ) ;
#94 = LINE ( 'NONE', #99, #147 ) ;
#95 = CARTESIAN_POINT ( 'NONE',  ( 1.387778780781445676E-14, 0.000000000000000000, 106.7204218353083860 ) ) ;
#96 = AXIS2_PLACEMENT_3D ( 'NONE', #118, #145, #178 ) ;
#97 = ORIENTED_EDGE ( 'NONE', *, *, #199, .T. ) ;
#98 = APPLICATION_PROTOCOL_DEFINITION ( 'international standard', 'config_control_design', 1994, #40 ) ;
#99 = CARTESIAN_POINT ( 'NONE',  ( 25.39999999999999858, 3.110602869834276865E-15, 10.00000000000000000 ) ) ;
#100 = ORIENTED_EDGE ( 'NONE', *, *, #199, .F. ) ;
#101 = APPROVAL_DATE_TIME ( #18, #140 ) ;
#102 = AXIS2_PLACEMENT_3D ( 'NONE', #161, #81, #62 ) ;
#103 = DIRECTION ( 'NONE',  ( 1.000000000000000000, 1.224646799147353207E-16, 0.000000000000000000 ) ) ;
#104 =( NAMED_UNIT ( * ) PLANE_ANGLE_UNIT ( ) SI_UNIT ( $, .RADIAN. ) );
#105 = SECURITY_CLASSIFICATION_LEVEL ( 'unclassified' ) ;
#106 = EDGE_LOOP ( 'NONE', ( #100, #127, #36 ) ) ;
#107 = PERSON_AND_ORGANIZATION ( #160, #186 ) ;
#108 = CIRCLE ( 'NONE', #32, 100.0000000000000000 ) ;
#109 = SHAPE_DEFINITION_REPRESENTATION ( #80, #88 ) ;
#110 = APPROVAL ( #131, 'UNSPECIFIED' ) ;
#111 = CC_DESIGN_APPROVAL ( #110, ( #75 ) ) ;
#112 = DIRECTION ( 'NONE',  ( -1.000000000000000000, 0.000000000000000000, 0.000000000000000000 ) ) ;
#113 = ORIENTED_EDGE ( 'NONE', *, *, #184, .F. ) ;
#114 = DIRECTION ( 'NONE',  ( 0.000000000000000000, 0.000000000000000000, 1.000000000000000000 ) ) ;
#115 = APPLICATION_PROTOCOL_DEFINITION ( 'international standard', 'config_control_design', 1994, #151 ) ;
#116 = AXIS2_PLACEMENT_3D ( 'NONE', #38, #22, #23 ) ;
#117 = FACE_OUTER_BOUND ( 'NONE', #144, .T. ) ;
#118 = CARTESIAN_POINT ( 'NONE',  ( 0.000000000000000000, 0.000000000000000000, 0.000000000000000000 ) ) ;
#119 = CARTESIAN_POINT ( 'NONE',  ( -25.40000000000003411, 0.000000000000000000, 9.999999999999994671 ) ) ;
#120 = CARTESIAN_POINT ( 'NONE',  ( -25.39999999999999858, 0.000000000000000000, 10.00000000000000000 ) ) ;
#121 = COORDINATED_UNIVERSAL_TIME_OFFSET ( 2, 0, .AHEAD. ) ;
#122 = ADVANCED_FACE ( 'NONE', ( #146 ), #33, .F. ) ;
#123 = LOCAL_TIME ( 15, 28, 17.00000000000000000, #136 ) ;
#124 = ORIENTED_EDGE ( 'NONE', *, *, #92, .F. ) ;
#125 = DIRECTION ( 'NONE',  ( 1.000000000000000000, 0.000000000000000000, 0.000000000000000000 ) ) ;
#126 = CARTESIAN_POINT ( 'NONE',  ( 1.387778780781445676E-14, 0.000000000000000000, 9.999999999999994671 ) ) ;
#127 = ORIENTED_EDGE ( 'NONE', *, *, #184, .T. ) ;
#128 = CARTESIAN_POINT ( 'NONE',  ( 25.40000000000005542, 3.110602869834283965E-15, 9.999999999999994671 ) ) ;
#129 = CIRCLE ( 'NONE', #76, 100.0000000000000000 ) ;
#130 = DIRECTION ( 'NONE',  ( -1.000000000000000000, 0.000000000000000000, 0.000000000000000000 ) ) ;
#131 = APPROVAL_STATUS ( 'not_yet_approved' ) ;
#132 = CARTESIAN_POINT ( 'NONE',  ( 1.387778780781445676E-14, 0.000000000000000000, 9.999999999999994671 ) ) ;
#133 = COORDINATED_UNIVERSAL_TIME_OFFSET ( 2, 0, .AHEAD. ) ;
#134 = AXIS2_PLACEMENT_3D ( 'NONE', #34, #6, #130 ) ;
#135 = APPROVAL_DATE_TIME ( #91, #174 ) ;
#136 = COORDINATED_UNIVERSAL_TIME_OFFSET ( 2, 0, .AHEAD. ) ;
#137 = ADVANCED_FACE ( 'NONE', ( #117 ), #180, .T. ) ;
#138 = UNCERTAINTY_MEASURE_WITH_UNIT (LENGTH_MEASURE( 1.000000000000000082E-05 ), #63, 'distance_accuracy_value', 'NONE');
#139 = LOCAL_TIME ( 15, 28, 17.00000000000000000, #54 ) ;
#140 = APPROVAL ( #87, 'UNSPECIFIED' ) ;
#141 = CYLINDRICAL_SURFACE ( 'NONE', #179, 25.39999999999999858 ) ;
#142 = SPHERICAL_SURFACE ( 'NONE', #57, 100.0000000000000000 ) ;
#143 = CC_DESIGN_PERSON_AND_ORGANIZATION_ASSIGNMENT ( #172, #74, ( #75 ) ) ;
#144 = EDGE_LOOP ( 'NONE', ( #124, #48, #70, #85 ) ) ;
#145 = DIRECTION ( 'NONE',  ( 0.000000000000000000, 0.000000000000000000, 1.000000000000000000 ) ) ;
#146 = FACE_OUTER_BOUND ( 'NONE', #65, .T. ) ;
#147 = VECTOR ( 'NONE', #44, 1000.000000000000000 ) ;
#148 = ORIENTED_EDGE ( 'NONE', *, *, #58, .F. ) ;
#149 = DATE_AND_TIME ( #86, #78 ) ;
#150 = APPROVAL_ROLE ( '' ) ;
#151 = APPLICATION_CONTEXT ( 'configuration controlled 3d designs of mechanical parts and assemblies' ) ;
#152 = VERTEX_POINT ( 'NONE', #50 ) ;
#153 = EDGE_CURVE ( 'NONE', #56, #152, #195, .T. ) ;
#154 = EDGE_CURVE ( 'NONE', #188, #152, #82, .T. ) ;
#155 = DIRECTION ( 'NONE',  ( 1.000000000000000000, 0.000000000000000000, -0.000000000000000000 ) ) ;
#156 = MANIFOLD_SOLID_BREP ( 'Cut-Revolve1', #41 ) ;
#157 = CC_DESIGN_PERSON_AND_ORGANIZATION_ASSIGNMENT ( #201, #42, ( #93 ) ) ;
#158 = EDGE_LOOP ( 'NONE', ( #148, #168 ) ) ;
#159 = CIRCLE ( 'NONE', #187, 25.39999999999999858 ) ;
#160 = PERSON ( 'UNSPECIFIED', 'UNSPECIFIED', 'UNSPECIFIED', ('UNSPECIFIED'), ('UNSPECIFIED'), ('UNSPECIFIED') ) ;
#161 = CARTESIAN_POINT ( 'NONE',  ( 1.387778780781445676E-14, 0.000000000000000000, 106.7204218353083860 ) ) ;
#162 = PERSON_AND_ORGANIZATION ( #160, #186 ) ;
#163 = VERTEX_POINT ( 'NONE', #128 ) ;
#164 = DIRECTION ( 'NONE',  ( 0.000000000000000000, 0.000000000000000000, 1.000000000000000000 ) ) ;
#165 = PERSON_AND_ORGANIZATION ( #160, #186 ) ;
#166 = LOCAL_TIME ( 15, 28, 17.00000000000000000, #121 ) ;
#167 = CARTESIAN_POINT ( 'NONE',  ( 1.387778780781445676E-14, 0.000000000000000000, 106.7204218353083860 ) ) ;
#168 = ORIENTED_EDGE ( 'NONE', *, *, #153, .F. ) ;
#169 = APPROVAL_STATUS ( 'not_yet_approved' ) ;
#170 = CIRCLE ( 'NONE', #47, 25.40000000000004476 ) ;
#171 = CALENDAR_DATE ( 2021, 25, 2 ) ;
#172 = PERSON_AND_ORGANIZATION ( #160, #186 ) ;
#173 = DESIGN_CONTEXT ( 'detailed design', #40, 'design' ) ;
#174 = APPROVAL ( #169, 'UNSPECIFIED' ) ;
#175 = CC_DESIGN_SECURITY_CLASSIFICATION ( #93, ( #75 ) ) ;
#176 = DIRECTION ( 'NONE',  ( 1.000000000000000000, 0.000000000000000000, 0.000000000000000000 ) ) ;
#177 = DIRECTION ( 'NONE',  ( -0.000000000000000000, -0.000000000000000000, -1.000000000000000000 ) ) ;
#178 = DIRECTION ( 'NONE',  ( 1.000000000000000000, 0.000000000000000000, 0.000000000000000000 ) ) ;
#179 = AXIS2_PLACEMENT_3D ( 'NONE', #14, #193, #112 ) ;
#180 = CYLINDRICAL_SURFACE ( 'NONE', #134, 25.39999999999999858 ) ;
#181 = PERSON_AND_ORGANIZATION ( #160, #186 ) ;
#182 = CARTESIAN_POINT ( 'NONE',  ( 0.000000000000000000, 0.000000000000000000, 0.000000000000000000 ) ) ;
#183 = PERSON_AND_ORGANIZATION_ROLE ( 'design_owner' ) ;
#184 = EDGE_CURVE ( 'NONE', #188, #79, #108, .T. ) ;
#185 = APPROVAL_ROLE ( '' ) ;
#186 = ORGANIZATION ( 'UNSPECIFIED', 'UNSPECIFIED', '' ) ;
#187 = AXIS2_PLACEMENT_3D ( 'NONE', #20, #114, #125 ) ;
#188 = VERTEX_POINT ( 'NONE', #119 ) ;
#189 = ORIENTED_EDGE ( 'NONE', *, *, #153, .T. ) ;
#190 = PLANE ( 'NONE',  #15 ) ;
#191 = DIRECTION ( 'NONE',  ( 1.224646799147353207E-16, -1.000000000000000000, 0.000000000000000000 ) ) ;
#192 = PRODUCT ( '010-1501E_UVFS_PCV_window', '010-1501E_UVFS_PCV_window', '', ( #49 ) ) ;
#193 = DIRECTION ( 'NONE',  ( -0.000000000000000000, -0.000000000000000000, -1.000000000000000000 ) ) ;
#194 = DIRECTION ( 'NONE',  ( 1.000000000000000000, 0.000000000000000000, 0.000000000000000000 ) ) ;
#195 = CIRCLE ( 'NONE', #96, 25.39999999999999858 ) ;
#196 = DIRECTION ( 'NONE',  ( 0.000000000000000000, -1.000000000000000000, -0.000000000000000000 ) ) ;
#197 = DATE_AND_TIME ( #66, #24 ) ;
#198 = DATE_TIME_ROLE ( 'creation_date' ) ;
#199 = EDGE_CURVE ( 'NONE', #188, #163, #43, .T. ) ;
#200 = APPROVAL_PERSON_ORGANIZATION ( #107, #174, #185 ) ;
#201 = PERSON_AND_ORGANIZATION ( #160, #186 ) ;
ENDSEC;
END-ISO-10303-21;
