ISO-10303-21;
HEADER;
FILE_DESCRIPTION (( 'STEP AP203' ),
    '1' );
FILE_NAME ('010-1250E_UVFS_PCV_window.STEP',
    '2021-02-25T11:58:59',
    ( '' ),
    ( '' ),
    'SwSTEP 2.0',
    'SolidWorks 2019',
    '' );
FILE_SCHEMA (( 'CONFIG_CONTROL_DESIGN' ));
ENDSEC;

DATA;
#1 = CARTESIAN_POINT ( 'NONE',  ( -12.69999999976634975, 0.000000000000000000, 6.000000000000227374 ) ) ;
#2 = FACE_OUTER_BOUND ( 'NONE', #170, .T. ) ;
#3 = SECURITY_CLASSIFICATION ( '', '', #115 ) ;
#4 = CC_DESIGN_PERSON_AND_ORGANIZATION_ASSIGNMENT ( #128, #65, ( #88 ) ) ;
#5 = PERSON_AND_ORGANIZATION_ROLE ( 'design_supplier' ) ;
#6 = APPROVAL_DATE_TIME ( #53, #10 ) ;
#7 = VECTOR ( 'NONE', #114, 1000.000000000000000 ) ;
#8 = EDGE_LOOP ( 'NONE', ( #153, #41, #141 ) ) ;
#9 = CARTESIAN_POINT ( 'NONE',  ( 12.69999999999999929, 1.555301434917138433E-15, 0.000000000000000000 ) ) ;
#10 = APPROVAL ( #134, 'UNSPECIFIED' ) ;
#11 = APPROVAL_PERSON_ORGANIZATION ( #133, #10, #22 ) ;
#12 = DIRECTION ( 'NONE',  ( 1.000000000000000000, 0.000000000000000000, 0.000000000000000000 ) ) ;
#13 = ORIENTED_EDGE ( 'NONE', *, *, #130, .F. ) ;
#14 = CYLINDRICAL_SURFACE ( 'NONE', #152, 12.69999999999999929 ) ;
#15 = DIRECTION ( 'NONE',  ( -0.000000000000000000, -0.000000000000000000, -1.000000000000000000 ) ) ;
#16 = ADVANCED_BREP_SHAPE_REPRESENTATION ( '010-1250E_UVFS_PCV_window', ( #58, #54 ), #145 ) ;
#17 = EDGE_CURVE ( 'NONE', #200, #79, #164, .T. ) ;
#18 = FACE_OUTER_BOUND ( 'NONE', #125, .T. ) ;
#19 = AXIS2_PLACEMENT_3D ( 'NONE', #95, #42, #26 ) ;
#20 = DIRECTION ( 'NONE',  ( 0.000000000000000000, 0.000000000000000000, 1.000000000000000000 ) ) ;
#21 = APPLICATION_CONTEXT ( 'configuration controlled 3d designs of mechanical parts and assemblies' ) ;
#22 = APPROVAL_ROLE ( '' ) ;
#23 = COORDINATED_UNIVERSAL_TIME_OFFSET ( 2, 0, .AHEAD. ) ;
#24 = ADVANCED_FACE ( 'NONE', ( #124 ), #107, .F. ) ;
#25 = ORIENTED_EDGE ( 'NONE', *, *, #77, .F. ) ;
#26 = DIRECTION ( 'NONE',  ( 1.000000000000000000, 0.000000000000000000, 0.000000000000000000 ) ) ;
#27 = CARTESIAN_POINT ( 'NONE',  ( 1.226449497515602616E-12, 0.000000000000000000, 10005.99193549674783 ) ) ;
#28 = ORIENTED_EDGE ( 'NONE', *, *, #113, .T. ) ;
#29 = VERTEX_POINT ( 'NONE', #94 ) ;
#30 = APPLICATION_CONTEXT ( 'configuration controlled 3d designs of mechanical parts and assemblies' ) ;
#31 = CALENDAR_DATE ( 2021, 25, 2 ) ;
#32 = CARTESIAN_POINT ( 'NONE',  ( 1.226449497515602616E-12, 0.000000000000000000, 10005.99193549674783 ) ) ;
#33 = PERSON ( 'UNSPECIFIED', 'UNSPECIFIED', 'UNSPECIFIED', ('UNSPECIFIED'), ('UNSPECIFIED'), ('UNSPECIFIED') ) ;
#34 = CIRCLE ( 'NONE', #118, 12.69999999976757543 ) ;
#35 = DATE_AND_TIME ( #120, #138 ) ;
#36 = CC_DESIGN_SECURITY_CLASSIFICATION ( #3, ( #66 ) ) ;
#37 = PERSON_AND_ORGANIZATION ( #33, #171 ) ;
#38 = EDGE_CURVE ( 'NONE', #59, #140, #43, .T. ) ;
#39 = ORIENTED_EDGE ( 'NONE', *, *, #17, .T. ) ;
#40 = DIRECTION ( 'NONE',  ( 0.000000000000000000, 0.000000000000000000, 1.000000000000000000 ) ) ;
#41 = ORIENTED_EDGE ( 'NONE', *, *, #130, .T. ) ;
#42 = DIRECTION ( 'NONE',  ( -0.000000000000000000, -0.000000000000000000, -1.000000000000000000 ) ) ;
#43 = CIRCLE ( 'NONE', #55, 12.69999999999999929 ) ;
#44 = PERSON_AND_ORGANIZATION ( #33, #171 ) ;
#45 = DIRECTION ( 'NONE',  ( 1.000000000000000000, 0.000000000000000000, 0.000000000000000000 ) ) ;
#46 = CC_DESIGN_PERSON_AND_ORGANIZATION_ASSIGNMENT ( #136, #5, ( #66 ) ) ;
#47 = CARTESIAN_POINT ( 'NONE',  ( 0.000000000000000000, 0.000000000000000000, 6.000000000000000000 ) ) ;
#48 = CARTESIAN_POINT ( 'NONE',  ( 0.000000000000000000, 0.000000000000000000, 0.000000000000000000 ) ) ;
#49 = DATE_TIME_ROLE ( 'classification_date' ) ;
#50 = PERSON_AND_ORGANIZATION_ROLE ( 'creator' ) ;
#51 = CIRCLE ( 'NONE', #82, 10000.00000000000000 ) ;
#52 = ADVANCED_FACE ( 'NONE', ( #183 ), #14, .T. ) ;
#53 = DATE_AND_TIME ( #195, #92 ) ;
#54 = AXIS2_PLACEMENT_3D ( 'NONE', #48, #20, #175 ) ;
#55 = AXIS2_PLACEMENT_3D ( 'NONE', #123, #106, #78 ) ;
#56 = SHAPE_DEFINITION_REPRESENTATION ( #72, #16 ) ;
#57 = DIRECTION ( 'NONE',  ( 1.000000000000000000, 0.000000000000000000, -0.000000000000000000 ) ) ;
#58 = MANIFOLD_SOLID_BREP ( 'Cut-Revolve1', #189 ) ;
#59 = VERTEX_POINT ( 'NONE', #9 ) ;
#60 = CARTESIAN_POINT ( 'NONE',  ( 0.000000000000000000, 0.000000000000000000, 6.000000000000000000 ) ) ;
#61 = EDGE_CURVE ( 'NONE', #79, #29, #64, .T. ) ;
#62 = DIRECTION ( 'NONE',  ( 0.000000000000000000, 1.000000000000000000, -0.000000000000000000 ) ) ;
#63 = COORDINATED_UNIVERSAL_TIME_OFFSET ( 2, 0, .AHEAD. ) ;
#64 = CIRCLE ( 'NONE', #181, 10000.00000000000000 ) ;
#65 = PERSON_AND_ORGANIZATION_ROLE ( 'design_owner' ) ;
#66 = PRODUCT_DEFINITION_FORMATION_WITH_SPECIFIED_SOURCE ( 'ANY', '', #88, .NOT_KNOWN. ) ;
#67 = CALENDAR_DATE ( 2021, 25, 2 ) ;
#68 = APPLICATION_PROTOCOL_DEFINITION ( 'international standard', 'config_control_design', 1994, #21 ) ;
#69 = CALENDAR_DATE ( 2021, 25, 2 ) ;
#70 = CC_DESIGN_PERSON_AND_ORGANIZATION_ASSIGNMENT ( #71, #86, ( #3 ) ) ;
#71 = PERSON_AND_ORGANIZATION ( #33, #171 ) ;
#72 = PRODUCT_DEFINITION_SHAPE ( 'NONE', 'NONE',  #166 ) ;
#73 = ORIENTED_EDGE ( 'NONE', *, *, #77, .T. ) ;
#74 = ORIENTED_EDGE ( 'NONE', *, *, #113, .F. ) ;
#75 = LOCAL_TIME ( 13, 58, 59.00000000000000000, #63 ) ;
#76 = CARTESIAN_POINT ( 'NONE',  ( -12.69999999999999929, 0.000000000000000000, 6.000000000000000000 ) ) ;
#77 = EDGE_CURVE ( 'NONE', #140, #59, #197, .T. ) ;
#78 = DIRECTION ( 'NONE',  ( 1.000000000000000000, 0.000000000000000000, 0.000000000000000000 ) ) ;
#79 = VERTEX_POINT ( 'NONE', #103 ) ;
#80 =( NAMED_UNIT ( * ) PLANE_ANGLE_UNIT ( ) SI_UNIT ( $, .RADIAN. ) );
#81 = SPHERICAL_SURFACE ( 'NONE', #137, 10000.00000000000000 ) ;
#82 = AXIS2_PLACEMENT_3D ( 'NONE', #32, #162, #150 ) ;
#83 = APPROVAL_PERSON_ORGANIZATION ( #37, #147, #167 ) ;
#84 = DIRECTION ( 'NONE',  ( 0.000000000000000000, -1.000000000000000000, -0.000000000000000000 ) ) ;
#85 = PERSON_AND_ORGANIZATION ( #33, #171 ) ;
#86 = PERSON_AND_ORGANIZATION_ROLE ( 'classification_officer' ) ;
#87 = ADVANCED_FACE ( 'NONE', ( #168 ), #90, .F. ) ;
#88 = PRODUCT ( '010-1250E_UVFS_PCV_window', '010-1250E_UVFS_PCV_window', '', ( #193 ) ) ;
#89 = ORIENTED_EDGE ( 'NONE', *, *, #98, .F. ) ;
#90 = SPHERICAL_SURFACE ( 'NONE', #100, 10000.00000000000000 ) ;
#91 = DIRECTION ( 'NONE',  ( 0.000000000000000000, -1.000000000000000000, -0.000000000000000000 ) ) ;
#92 = LOCAL_TIME ( 13, 58, 59.00000000000000000, #135 ) ;
#93 = AXIS2_PLACEMENT_3D ( 'NONE', #188, #122, #109 ) ;
#94 = CARTESIAN_POINT ( 'NONE',  ( 1.838772897089278962E-12, 0.000000000000000000, 5.991935496748368450 ) ) ;
#95 = CARTESIAN_POINT ( 'NONE',  ( 1.226449497515602616E-12, 0.000000000000000000, 6.000000000000227374 ) ) ;
#96 = DATE_AND_TIME ( #31, #101 ) ;
#97 =( NAMED_UNIT ( * ) SI_UNIT ( $, .STERADIAN. ) SOLID_ANGLE_UNIT ( ) );
#98 = EDGE_CURVE ( 'NONE', #200, #140, #104, .T. ) ;
#99 = APPROVAL_STATUS ( 'not_yet_approved' ) ;
#100 = AXIS2_PLACEMENT_3D ( 'NONE', #199, #91, #12 ) ;
#101 = LOCAL_TIME ( 13, 58, 59.00000000000000000, #174 ) ;
#102 = PERSON_AND_ORGANIZATION ( #33, #171 ) ;
#103 = CARTESIAN_POINT ( 'NONE',  ( 12.69999999976880289, 1.555301434902981732E-15, 6.000000000000227374 ) ) ;
#104 = LINE ( 'NONE', #76, #108 ) ;
#105 = PRODUCT_RELATED_PRODUCT_CATEGORY ( 'detail', '', ( #88 ) ) ;
#106 = DIRECTION ( 'NONE',  ( 0.000000000000000000, 0.000000000000000000, 1.000000000000000000 ) ) ;
#107 = PLANE ( 'NONE',  #156 ) ;
#108 = VECTOR ( 'NONE', #160, 1000.000000000000000 ) ;
#109 = DIRECTION ( 'NONE',  ( 1.000000000000000000, 0.000000000000000000, 0.000000000000000000 ) ) ;
#110 = PERSON_AND_ORGANIZATION_ROLE ( 'creator' ) ;
#111 = CARTESIAN_POINT ( 'NONE',  ( 12.69999999999999929, 1.555301434917138433E-15, 6.000000000000000000 ) ) ;
#112 = CARTESIAN_POINT ( 'NONE',  ( -12.69999999999999929, 0.000000000000000000, 0.000000000000000000 ) ) ;
#113 = EDGE_CURVE ( 'NONE', #79, #59, #176, .T. ) ;
#114 = DIRECTION ( 'NONE',  ( -0.000000000000000000, -0.000000000000000000, -1.000000000000000000 ) ) ;
#115 = SECURITY_CLASSIFICATION_LEVEL ( 'unclassified' ) ;
#116 = COORDINATED_UNIVERSAL_TIME_OFFSET ( 2, 0, .AHEAD. ) ;
#117 = APPROVAL_DATE_TIME ( #180, #147 ) ;
#118 = AXIS2_PLACEMENT_3D ( 'NONE', #129, #131, #45 ) ;
#119 = LOCAL_TIME ( 13, 58, 59.00000000000000000, #116 ) ;
#120 = CALENDAR_DATE ( 2021, 25, 2 ) ;
#121 = EDGE_CURVE ( 'NONE', #79, #200, #34, .T. ) ;
#122 = DIRECTION ( 'NONE',  ( 0.000000000000000000, 0.000000000000000000, 1.000000000000000000 ) ) ;
#123 = CARTESIAN_POINT ( 'NONE',  ( 0.000000000000000000, 0.000000000000000000, 0.000000000000000000 ) ) ;
#124 = FACE_OUTER_BOUND ( 'NONE', #172, .T. ) ;
#125 = EDGE_LOOP ( 'NONE', ( #13, #169, #182 ) ) ;
#126 = ORIENTED_EDGE ( 'NONE', *, *, #38, .T. ) ;
#127 = DATE_AND_TIME ( #67, #75 ) ;
#128 = PERSON_AND_ORGANIZATION ( #33, #171 ) ;
#129 = CARTESIAN_POINT ( 'NONE',  ( 1.226449497515602616E-12, 0.000000000000000000, 6.000000000000227374 ) ) ;
#130 = EDGE_CURVE ( 'NONE', #200, #29, #51, .T. ) ;
#131 = DIRECTION ( 'NONE',  ( -0.000000000000000000, -0.000000000000000000, -1.000000000000000000 ) ) ;
#132 = CYLINDRICAL_SURFACE ( 'NONE', #187, 12.69999999999999929 ) ;
#133 = PERSON_AND_ORGANIZATION ( #33, #171 ) ;
#134 = APPROVAL_STATUS ( 'not_yet_approved' ) ;
#135 = COORDINATED_UNIVERSAL_TIME_OFFSET ( 2, 0, .AHEAD. ) ;
#136 = PERSON_AND_ORGANIZATION ( #33, #171 ) ;
#137 = AXIS2_PLACEMENT_3D ( 'NONE', #148, #84, #146 ) ;
#138 = LOCAL_TIME ( 13, 58, 59.00000000000000000, #23 ) ;
#139 = ADVANCED_FACE ( 'NONE', ( #18 ), #81, .F. ) ;
#140 = VERTEX_POINT ( 'NONE', #112 ) ;
#141 = ORIENTED_EDGE ( 'NONE', *, *, #61, .F. ) ;
#142 = UNCERTAINTY_MEASURE_WITH_UNIT (LENGTH_MEASURE( 1.000000000000000082E-05 ), #161, 'distance_accuracy_value', 'NONE');
#143 = DIRECTION ( 'NONE',  ( -1.000000000000000000, 0.000000000000000000, 0.000000000000000000 ) ) ;
#144 = DIRECTION ( 'NONE',  ( 0.000000000000000000, 0.000000000000000000, 1.000000000000000000 ) ) ;
#145 =( GEOMETRIC_REPRESENTATION_CONTEXT ( 3 ) GLOBAL_UNCERTAINTY_ASSIGNED_CONTEXT ( ( #142 ) ) GLOBAL_UNIT_ASSIGNED_CONTEXT ( ( #161, #80, #97 ) ) REPRESENTATION_CONTEXT ( 'NONE', 'WORKASPACE' ) );
#146 = DIRECTION ( 'NONE',  ( 1.000000000000000000, 0.000000000000000000, 0.000000000000000000 ) ) ;
#147 = APPROVAL ( #196, 'UNSPECIFIED' ) ;
#148 = CARTESIAN_POINT ( 'NONE',  ( 1.226449497515602616E-12, 0.000000000000000000, 10005.99193549674783 ) ) ;
#149 = CC_DESIGN_APPROVAL ( #10, ( #66 ) ) ;
#150 = DIRECTION ( 'NONE',  ( 1.000000000000000000, 1.224646799147353207E-16, 0.000000000000000000 ) ) ;
#151 = APPROVAL ( #99, 'UNSPECIFIED' ) ;
#152 = AXIS2_PLACEMENT_3D ( 'NONE', #60, #155, #143 ) ;
#153 = ORIENTED_EDGE ( 'NONE', *, *, #17, .F. ) ;
#154 = APPROVAL_PERSON_ORGANIZATION ( #85, #151, #163 ) ;
#155 = DIRECTION ( 'NONE',  ( -0.000000000000000000, -0.000000000000000000, -1.000000000000000000 ) ) ;
#156 = AXIS2_PLACEMENT_3D ( 'NONE', #159, #40, #57 ) ;
#157 = EDGE_LOOP ( 'NONE', ( #74, #201, #198, #73 ) ) ;
#158 = CC_DESIGN_PERSON_AND_ORGANIZATION_ASSIGNMENT ( #102, #50, ( #66 ) ) ;
#159 = CARTESIAN_POINT ( 'NONE',  ( 0.000000000000000000, 0.000000000000000000, 0.000000000000000000 ) ) ;
#160 = DIRECTION ( 'NONE',  ( -0.000000000000000000, -0.000000000000000000, -1.000000000000000000 ) ) ;
#161 =( LENGTH_UNIT ( ) NAMED_UNIT ( * ) SI_UNIT ( .MILLI., .METRE. ) );
#162 = DIRECTION ( 'NONE',  ( 1.224646799147353207E-16, -1.000000000000000000, 0.000000000000000000 ) ) ;
#163 = APPROVAL_ROLE ( '' ) ;
#164 = CIRCLE ( 'NONE', #19, 12.69999999976757543 ) ;
#165 = CC_DESIGN_APPROVAL ( #151, ( #166 ) ) ;
#166 = PRODUCT_DEFINITION ( 'UNKNOWN', '', #66, #186 ) ;
#167 = APPROVAL_ROLE ( '' ) ;
#168 = FACE_OUTER_BOUND ( 'NONE', #8, .T. ) ;
#169 = ORIENTED_EDGE ( 'NONE', *, *, #121, .F. ) ;
#170 = EDGE_LOOP ( 'NONE', ( #39, #28, #126, #89 ) ) ;
#171 = ORGANIZATION ( 'UNSPECIFIED', 'UNSPECIFIED', '' ) ;
#172 = EDGE_LOOP ( 'NONE', ( #25, #184 ) ) ;
#173 = CC_DESIGN_PERSON_AND_ORGANIZATION_ASSIGNMENT ( #44, #110, ( #166 ) ) ;
#174 = COORDINATED_UNIVERSAL_TIME_OFFSET ( 2, 0, .AHEAD. ) ;
#175 = DIRECTION ( 'NONE',  ( 1.000000000000000000, 0.000000000000000000, 0.000000000000000000 ) ) ;
#176 = LINE ( 'NONE', #111, #7 ) ;
#177 = DIRECTION ( 'NONE',  ( -1.000000000000000000, 0.000000000000000000, 0.000000000000000000 ) ) ;
#178 = CC_DESIGN_DATE_AND_TIME_ASSIGNMENT ( #35, #49, ( #3 ) ) ;
#179 = CC_DESIGN_APPROVAL ( #147, ( #3 ) ) ;
#180 = DATE_AND_TIME ( #69, #119 ) ;
#181 = AXIS2_PLACEMENT_3D ( 'NONE', #27, #62, #144 ) ;
#182 = ORIENTED_EDGE ( 'NONE', *, *, #61, .T. ) ;
#183 = FACE_OUTER_BOUND ( 'NONE', #157, .T. ) ;
#184 = ORIENTED_EDGE ( 'NONE', *, *, #38, .F. ) ;
#185 = CC_DESIGN_DATE_AND_TIME_ASSIGNMENT ( #96, #191, ( #166 ) ) ;
#186 = DESIGN_CONTEXT ( 'detailed design', #30, 'design' ) ;
#187 = AXIS2_PLACEMENT_3D ( 'NONE', #47, #15, #177 ) ;
#188 = CARTESIAN_POINT ( 'NONE',  ( 0.000000000000000000, 0.000000000000000000, 0.000000000000000000 ) ) ;
#189 = CLOSED_SHELL ( 'NONE', ( #87, #194, #52, #24, #139 ) ) ;
#190 = APPROVAL_DATE_TIME ( #127, #151 ) ;
#191 = DATE_TIME_ROLE ( 'creation_date' ) ;
#192 = APPLICATION_PROTOCOL_DEFINITION ( 'international standard', 'config_control_design', 1994, #30 ) ;
#193 = MECHANICAL_CONTEXT ( 'NONE', #21, 'mechanical' ) ;
#194 = ADVANCED_FACE ( 'NONE', ( #2 ), #132, .T. ) ;
#195 = CALENDAR_DATE ( 2021, 25, 2 ) ;
#196 = APPROVAL_STATUS ( 'not_yet_approved' ) ;
#197 = CIRCLE ( 'NONE', #93, 12.69999999999999929 ) ;
#198 = ORIENTED_EDGE ( 'NONE', *, *, #98, .T. ) ;
#199 = CARTESIAN_POINT ( 'NONE',  ( 1.226449497515602616E-12, 0.000000000000000000, 10005.99193549674783 ) ) ;
#200 = VERTEX_POINT ( 'NONE', #1 ) ;
#201 = ORIENTED_EDGE ( 'NONE', *, *, #121, .T. ) ;
ENDSEC;
END-ISO-10303-21;
