ISO-10303-21;
HEADER;
FILE_DESCRIPTION (( 'STEP AP203' ),
    '1' );
FILE_NAME ('010-1240E_UVFS_PCV_window.STEP',
    '2021-02-25T11:58:39',
    ( '' ),
    ( '' ),
    'SwSTEP 2.0',
    'SolidWorks 2019',
    '' );
FILE_SCHEMA (( 'CONFIG_CONTROL_DESIGN' ));
ENDSEC;

DATA;
#1 =( LENGTH_UNIT ( ) NAMED_UNIT ( * ) SI_UNIT ( .MILLI., .METRE. ) );
#2 = AXIS2_PLACEMENT_3D ( 'NONE', #92, #170, #109 ) ;
#3 = DATE_AND_TIME ( #197, #102 ) ;
#4 = PRODUCT_DEFINITION_FORMATION_WITH_SPECIFIED_SOURCE ( 'ANY', '', #130, .NOT_KNOWN. ) ;
#5 = AXIS2_PLACEMENT_3D ( 'NONE', #32, #172, #186 ) ;
#6 = COORDINATED_UNIVERSAL_TIME_OFFSET ( 2, 0, .AHEAD. ) ;
#7 = APPROVAL_PERSON_ORGANIZATION ( #66, #11, #67 ) ;
#8 = DATE_AND_TIME ( #119, #43 ) ;
#9 = EDGE_LOOP ( 'NONE', ( #29, #27 ) ) ;
#10 = CIRCLE ( 'NONE', #31, 12.70000000032705856 ) ;
#11 = APPROVAL ( #83, 'UNSPECIFIED' ) ;
#12 = EDGE_LOOP ( 'NONE', ( #164, #183, #107 ) ) ;
#13 = ORIENTED_EDGE ( 'NONE', *, *, #161, .T. ) ;
#14 = DIRECTION ( 'NONE',  ( -0.000000000000000000, -0.000000000000000000, -1.000000000000000000 ) ) ;
#15 = SECURITY_CLASSIFICATION ( '', '', #39 ) ;
#16 = CARTESIAN_POINT ( 'NONE',  ( 12.70000000032804088, 1.555301434957311963E-15, 6.000000000000227374 ) ) ;
#17 = SPHERICAL_SURFACE ( 'NONE', #184, 8000.000000000000000 ) ;
#18 = DIRECTION ( 'NONE',  ( -0.000000000000000000, -0.000000000000000000, -1.000000000000000000 ) ) ;
#19 = CARTESIAN_POINT ( 'NONE',  ( 9.818534874028728154E-13, 0.000000000000000000, 8005.989919368648771 ) ) ;
#20 = DIRECTION ( 'NONE',  ( 0.000000000000000000, 0.000000000000000000, 1.000000000000000000 ) ) ;
#21 = PERSON_AND_ORGANIZATION ( #171, #86 ) ;
#22 = PRODUCT_DEFINITION ( 'UNKNOWN', '', #4, #180 ) ;
#23 = PERSON_AND_ORGANIZATION_ROLE ( 'classification_officer' ) ;
#24 = CIRCLE ( 'NONE', #52, 12.70000000032705856 ) ;
#25 = COORDINATED_UNIVERSAL_TIME_OFFSET ( 2, 0, .AHEAD. ) ;
#26 = CC_DESIGN_PERSON_AND_ORGANIZATION_ASSIGNMENT ( #53, #116, ( #130 ) ) ;
#27 = ORIENTED_EDGE ( 'NONE', *, *, #161, .F. ) ;
#28 = ORIENTED_EDGE ( 'NONE', *, *, #41, .F. ) ;
#29 = ORIENTED_EDGE ( 'NONE', *, *, #179, .F. ) ;
#30 = VERTEX_POINT ( 'NONE', #106 ) ;
#31 = AXIS2_PLACEMENT_3D ( 'NONE', #198, #14, #125 ) ;
#32 = CARTESIAN_POINT ( 'NONE',  ( 9.818534874028728154E-13, 0.000000000000000000, 8005.989919368648771 ) ) ;
#33 = CARTESIAN_POINT ( 'NONE',  ( 0.000000000000000000, 0.000000000000000000, 0.000000000000000000 ) ) ;
#34 = LINE ( 'NONE', #49, #121 ) ;
#35 = DIRECTION ( 'NONE',  ( -1.000000000000000000, 0.000000000000000000, 0.000000000000000000 ) ) ;
#36 = DIRECTION ( 'NONE',  ( 1.000000000000000000, 0.000000000000000000, -0.000000000000000000 ) ) ;
#37 = CC_DESIGN_PERSON_AND_ORGANIZATION_ASSIGNMENT ( #160, #134, ( #4 ) ) ;
#38 = DIRECTION ( 'NONE',  ( -0.000000000000000000, -0.000000000000000000, -1.000000000000000000 ) ) ;
#39 = SECURITY_CLASSIFICATION_LEVEL ( 'unclassified' ) ;
#40 = AXIS2_PLACEMENT_3D ( 'NONE', #143, #18, #127 ) ;
#41 = EDGE_CURVE ( 'NONE', #30, #72, #115, .T. ) ;
#42 = ORIENTED_EDGE ( 'NONE', *, *, #81, .F. ) ;
#43 = LOCAL_TIME ( 13, 58, 39.00000000000000000, #25 ) ;
#44 = SPHERICAL_SURFACE ( 'NONE', #5, 8000.000000000000000 ) ;
#45 = AXIS2_PLACEMENT_3D ( 'NONE', #33, #158, #36 ) ;
#46 = EDGE_CURVE ( 'NONE', #165, #72, #132, .T. ) ;
#47 = LINE ( 'NONE', #76, #108 ) ;
#48 = PERSON_AND_ORGANIZATION ( #171, #86 ) ;
#49 = CARTESIAN_POINT ( 'NONE',  ( -12.69999999999999929, 0.000000000000000000, 6.000000000000000000 ) ) ;
#50 = DATE_TIME_ROLE ( 'creation_date' ) ;
#51 = FACE_OUTER_BOUND ( 'NONE', #12, .T. ) ;
#52 = AXIS2_PLACEMENT_3D ( 'NONE', #113, #142, #195 ) ;
#53 = PERSON_AND_ORGANIZATION ( #171, #86 ) ;
#54 = DATE_AND_TIME ( #98, #74 ) ;
#55 = VERTEX_POINT ( 'NONE', #126 ) ;
#56 = EDGE_LOOP ( 'NONE', ( #28, #136, #104 ) ) ;
#57 = CARTESIAN_POINT ( 'NONE',  ( 9.818534874028728154E-13, 0.000000000000000000, 8005.989919368648771 ) ) ;
#58 = CC_DESIGN_DATE_AND_TIME_ASSIGNMENT ( #188, #50, ( #22 ) ) ;
#59 = CARTESIAN_POINT ( 'NONE',  ( -12.69999999999999929, 0.000000000000000000, 0.000000000000000000 ) ) ;
#60 = FACE_OUTER_BOUND ( 'NONE', #73, .T. ) ;
#61 = AXIS2_PLACEMENT_3D ( 'NONE', #189, #80, #175 ) ;
#62 = FACE_OUTER_BOUND ( 'NONE', #56, .T. ) ;
#63 = CALENDAR_DATE ( 2021, 25, 2 ) ;
#64 = MECHANICAL_CONTEXT ( 'NONE', #85, 'mechanical' ) ;
#65 = CARTESIAN_POINT ( 'NONE',  ( 0.000000000000000000, 0.000000000000000000, 0.000000000000000000 ) ) ;
#66 = PERSON_AND_ORGANIZATION ( #171, #86 ) ;
#67 = APPROVAL_ROLE ( '' ) ;
#68 = UNCERTAINTY_MEASURE_WITH_UNIT (LENGTH_MEASURE( 1.000000000000000082E-05 ), #1, 'distance_accuracy_value', 'NONE');
#69 = CC_DESIGN_PERSON_AND_ORGANIZATION_ASSIGNMENT ( #176, #148, ( #4 ) ) ;
#70 = DATE_TIME_ROLE ( 'classification_date' ) ;
#71 = APPROVAL_STATUS ( 'not_yet_approved' ) ;
#72 = VERTEX_POINT ( 'NONE', #168 ) ;
#73 = EDGE_LOOP ( 'NONE', ( #191, #88, #166, #151 ) ) ;
#74 = LOCAL_TIME ( 13, 58, 39.00000000000000000, #6 ) ;
#75 = CARTESIAN_POINT ( 'NONE',  ( 0.000000000000000000, 0.000000000000000000, 0.000000000000000000 ) ) ;
#76 = CARTESIAN_POINT ( 'NONE',  ( 12.69999999999999929, 1.555301434917138433E-15, 6.000000000000000000 ) ) ;
#77 =( NAMED_UNIT ( * ) SI_UNIT ( $, .STERADIAN. ) SOLID_ANGLE_UNIT ( ) );
#78 = DIRECTION ( 'NONE',  ( 1.000000000000000000, 0.000000000000000000, 0.000000000000000000 ) ) ;
#79 = FACE_OUTER_BOUND ( 'NONE', #123, .T. ) ;
#80 = DIRECTION ( 'NONE',  ( 0.000000000000000000, 0.000000000000000000, 1.000000000000000000 ) ) ;
#81 = EDGE_CURVE ( 'NONE', #30, #138, #34, .T. ) ;
#82 = SHAPE_DEFINITION_REPRESENTATION ( #201, #137 ) ;
#83 = APPROVAL_STATUS ( 'not_yet_approved' ) ;
#84 = APPROVAL_DATE_TIME ( #149, #11 ) ;
#85 = APPLICATION_CONTEXT ( 'configuration controlled 3d designs of mechanical parts and assemblies' ) ;
#86 = ORGANIZATION ( 'UNSPECIFIED', 'UNSPECIFIED', '' ) ;
#87 = AXIS2_PLACEMENT_3D ( 'NONE', #57, #89, #155 ) ;
#88 = ORIENTED_EDGE ( 'NONE', *, *, #167, .T. ) ;
#89 = DIRECTION ( 'NONE',  ( 1.224646799147353207E-16, -1.000000000000000000, 0.000000000000000000 ) ) ;
#90 = CYLINDRICAL_SURFACE ( 'NONE', #40, 12.69999999999999929 ) ;
#91 = LOCAL_TIME ( 13, 58, 39.00000000000000000, #199 ) ;
#92 = CARTESIAN_POINT ( 'NONE',  ( 9.818534874028728154E-13, 0.000000000000000000, 8005.989919368648771 ) ) ;
#93 = AXIS2_PLACEMENT_3D ( 'NONE', #75, #140, #156 ) ;
#94 = DIRECTION ( 'NONE',  ( 0.000000000000000000, -1.000000000000000000, -0.000000000000000000 ) ) ;
#95 = MANIFOLD_SOLID_BREP ( 'Cut-Revolve1', #152 ) ;
#96 = PERSON_AND_ORGANIZATION ( #171, #86 ) ;
#97 = CC_DESIGN_APPROVAL ( #11, ( #15 ) ) ;
#98 = CALENDAR_DATE ( 2021, 25, 2 ) ;
#99 =( GEOMETRIC_REPRESENTATION_CONTEXT ( 3 ) GLOBAL_UNCERTAINTY_ASSIGNED_CONTEXT ( ( #68 ) ) GLOBAL_UNIT_ASSIGNED_CONTEXT ( ( #1, #187, #77 ) ) REPRESENTATION_CONTEXT ( 'NONE', 'WORKASPACE' ) );
#100 = APPROVAL ( #71, 'UNSPECIFIED' ) ;
#101 = APPROVAL_ROLE ( '' ) ;
#102 = LOCAL_TIME ( 13, 58, 39.00000000000000000, #147 ) ;
#103 = CC_DESIGN_PERSON_AND_ORGANIZATION_ASSIGNMENT ( #48, #112, ( #22 ) ) ;
#104 = ORIENTED_EDGE ( 'NONE', *, *, #46, .T. ) ;
#105 = ADVANCED_FACE ( 'NONE', ( #62 ), #44, .F. ) ;
#106 = CARTESIAN_POINT ( 'NONE',  ( -12.70000000032607801, 0.000000000000000000, 6.000000000000227374 ) ) ;
#107 = ORIENTED_EDGE ( 'NONE', *, *, #46, .F. ) ;
#108 = VECTOR ( 'NONE', #128, 1000.000000000000000 ) ;
#109 = DIRECTION ( 'NONE',  ( 0.000000000000000000, 0.000000000000000000, 1.000000000000000000 ) ) ;
#110 = APPROVAL_DATE_TIME ( #3, #133 ) ;
#111 = DIRECTION ( 'NONE',  ( -0.000000000000000000, -0.000000000000000000, -1.000000000000000000 ) ) ;
#112 = PERSON_AND_ORGANIZATION_ROLE ( 'creator' ) ;
#113 = CARTESIAN_POINT ( 'NONE',  ( 9.818534874028728154E-13, 0.000000000000000000, 6.000000000000227374 ) ) ;
#114 = CYLINDRICAL_SURFACE ( 'NONE', #146, 12.69999999999999929 ) ;
#115 = CIRCLE ( 'NONE', #87, 8000.000000000000000 ) ;
#116 = PERSON_AND_ORGANIZATION_ROLE ( 'design_owner' ) ;
#117 = CC_DESIGN_DATE_AND_TIME_ASSIGNMENT ( #8, #70, ( #15 ) ) ;
#118 = APPROVAL_DATE_TIME ( #54, #100 ) ;
#119 = CALENDAR_DATE ( 2021, 25, 2 ) ;
#120 = CALENDAR_DATE ( 2021, 25, 2 ) ;
#121 = VECTOR ( 'NONE', #111, 1000.000000000000000 ) ;
#122 = APPROVAL_PERSON_ORGANIZATION ( #150, #100, #101 ) ;
#123 = EDGE_LOOP ( 'NONE', ( #192, #154, #13, #42 ) ) ;
#124 = LOCAL_TIME ( 13, 58, 39.00000000000000000, #178 ) ;
#125 = DIRECTION ( 'NONE',  ( 1.000000000000000000, 0.000000000000000000, 0.000000000000000000 ) ) ;
#126 = CARTESIAN_POINT ( 'NONE',  ( 12.69999999999999929, 1.555301434917138433E-15, 0.000000000000000000 ) ) ;
#127 = DIRECTION ( 'NONE',  ( -1.000000000000000000, 0.000000000000000000, 0.000000000000000000 ) ) ;
#128 = DIRECTION ( 'NONE',  ( -0.000000000000000000, -0.000000000000000000, -1.000000000000000000 ) ) ;
#129 = APPROVAL_STATUS ( 'not_yet_approved' ) ;
#130 = PRODUCT ( '010-1240E_UVFS_PCV_window', '010-1240E_UVFS_PCV_window', '', ( #64 ) ) ;
#131 = PRODUCT_RELATED_PRODUCT_CATEGORY ( 'detail', '', ( #130 ) ) ;
#132 = CIRCLE ( 'NONE', #2, 8000.000000000000000 ) ;
#133 = APPROVAL ( #129, 'UNSPECIFIED' ) ;
#134 = PERSON_AND_ORGANIZATION_ROLE ( 'creator' ) ;
#135 = CIRCLE ( 'NONE', #93, 12.69999999999999929 ) ;
#136 = ORIENTED_EDGE ( 'NONE', *, *, #167, .F. ) ;
#137 = ADVANCED_BREP_SHAPE_REPRESENTATION ( '010-1240E_UVFS_PCV_window', ( #95, #61 ), #99 ) ;
#138 = VERTEX_POINT ( 'NONE', #59 ) ;
#139 = EDGE_CURVE ( 'NONE', #30, #165, #10, .T. ) ;
#140 = DIRECTION ( 'NONE',  ( 0.000000000000000000, 0.000000000000000000, 1.000000000000000000 ) ) ;
#141 = APPLICATION_PROTOCOL_DEFINITION ( 'international standard', 'config_control_design', 1994, #85 ) ;
#142 = DIRECTION ( 'NONE',  ( -0.000000000000000000, -0.000000000000000000, -1.000000000000000000 ) ) ;
#143 = CARTESIAN_POINT ( 'NONE',  ( 0.000000000000000000, 0.000000000000000000, 6.000000000000000000 ) ) ;
#144 = EDGE_CURVE ( 'NONE', #165, #55, #47, .T. ) ;
#145 = CARTESIAN_POINT ( 'NONE',  ( 0.000000000000000000, 0.000000000000000000, 6.000000000000000000 ) ) ;
#146 = AXIS2_PLACEMENT_3D ( 'NONE', #145, #38, #35 ) ;
#147 = COORDINATED_UNIVERSAL_TIME_OFFSET ( 2, 0, .AHEAD. ) ;
#148 = PERSON_AND_ORGANIZATION_ROLE ( 'design_supplier' ) ;
#149 = DATE_AND_TIME ( #120, #124 ) ;
#150 = PERSON_AND_ORGANIZATION ( #171, #86 ) ;
#151 = ORIENTED_EDGE ( 'NONE', *, *, #179, .T. ) ;
#152 = CLOSED_SHELL ( 'NONE', ( #181, #193, #196, #177, #105 ) ) ;
#153 = CIRCLE ( 'NONE', #162, 12.69999999999999929 ) ;
#154 = ORIENTED_EDGE ( 'NONE', *, *, #144, .T. ) ;
#155 = DIRECTION ( 'NONE',  ( 1.000000000000000000, 1.224646799147353207E-16, 0.000000000000000000 ) ) ;
#156 = DIRECTION ( 'NONE',  ( 1.000000000000000000, 0.000000000000000000, 0.000000000000000000 ) ) ;
#157 = APPROVAL_PERSON_ORGANIZATION ( #96, #133, #159 ) ;
#158 = DIRECTION ( 'NONE',  ( 0.000000000000000000, 0.000000000000000000, 1.000000000000000000 ) ) ;
#159 = APPROVAL_ROLE ( '' ) ;
#160 = PERSON_AND_ORGANIZATION ( #171, #86 ) ;
#161 = EDGE_CURVE ( 'NONE', #55, #138, #135, .T. ) ;
#162 = AXIS2_PLACEMENT_3D ( 'NONE', #65, #20, #169 ) ;
#163 = CC_DESIGN_PERSON_AND_ORGANIZATION_ASSIGNMENT ( #21, #23, ( #15 ) ) ;
#164 = ORIENTED_EDGE ( 'NONE', *, *, #139, .F. ) ;
#165 = VERTEX_POINT ( 'NONE', #16 ) ;
#166 = ORIENTED_EDGE ( 'NONE', *, *, #81, .T. ) ;
#167 = EDGE_CURVE ( 'NONE', #165, #30, #24, .T. ) ;
#168 = CARTESIAN_POINT ( 'NONE',  ( 1.471712207061814216E-12, 0.000000000000000000, 5.989919368648344289 ) ) ;
#169 = DIRECTION ( 'NONE',  ( 1.000000000000000000, 0.000000000000000000, 0.000000000000000000 ) ) ;
#170 = DIRECTION ( 'NONE',  ( 0.000000000000000000, 1.000000000000000000, -0.000000000000000000 ) ) ;
#171 = PERSON ( 'UNSPECIFIED', 'UNSPECIFIED', 'UNSPECIFIED', ('UNSPECIFIED'), ('UNSPECIFIED'), ('UNSPECIFIED') ) ;
#172 = DIRECTION ( 'NONE',  ( 0.000000000000000000, -1.000000000000000000, -0.000000000000000000 ) ) ;
#173 = FACE_OUTER_BOUND ( 'NONE', #9, .T. ) ;
#174 = APPLICATION_PROTOCOL_DEFINITION ( 'international standard', 'config_control_design', 1994, #185 ) ;
#175 = DIRECTION ( 'NONE',  ( 1.000000000000000000, 0.000000000000000000, 0.000000000000000000 ) ) ;
#176 = PERSON_AND_ORGANIZATION ( #171, #86 ) ;
#177 = ADVANCED_FACE ( 'NONE', ( #173 ), #200, .F. ) ;
#178 = COORDINATED_UNIVERSAL_TIME_OFFSET ( 2, 0, .AHEAD. ) ;
#179 = EDGE_CURVE ( 'NONE', #138, #55, #153, .T. ) ;
#180 = DESIGN_CONTEXT ( 'detailed design', #185, 'design' ) ;
#181 = ADVANCED_FACE ( 'NONE', ( #51 ), #17, .F. ) ;
#182 = CC_DESIGN_APPROVAL ( #133, ( #22 ) ) ;
#183 = ORIENTED_EDGE ( 'NONE', *, *, #41, .T. ) ;
#184 = AXIS2_PLACEMENT_3D ( 'NONE', #19, #94, #78 ) ;
#185 = APPLICATION_CONTEXT ( 'configuration controlled 3d designs of mechanical parts and assemblies' ) ;
#186 = DIRECTION ( 'NONE',  ( 1.000000000000000000, 0.000000000000000000, 0.000000000000000000 ) ) ;
#187 =( NAMED_UNIT ( * ) PLANE_ANGLE_UNIT ( ) SI_UNIT ( $, .RADIAN. ) );
#188 = DATE_AND_TIME ( #63, #91 ) ;
#189 = CARTESIAN_POINT ( 'NONE',  ( 0.000000000000000000, 0.000000000000000000, 0.000000000000000000 ) ) ;
#190 = CC_DESIGN_APPROVAL ( #100, ( #4 ) ) ;
#191 = ORIENTED_EDGE ( 'NONE', *, *, #144, .F. ) ;
#192 = ORIENTED_EDGE ( 'NONE', *, *, #139, .T. ) ;
#193 = ADVANCED_FACE ( 'NONE', ( #79 ), #114, .T. ) ;
#194 = CC_DESIGN_SECURITY_CLASSIFICATION ( #15, ( #4 ) ) ;
#195 = DIRECTION ( 'NONE',  ( 1.000000000000000000, 0.000000000000000000, 0.000000000000000000 ) ) ;
#196 = ADVANCED_FACE ( 'NONE', ( #60 ), #90, .T. ) ;
#197 = CALENDAR_DATE ( 2021, 25, 2 ) ;
#198 = CARTESIAN_POINT ( 'NONE',  ( 9.818534874028728154E-13, 0.000000000000000000, 6.000000000000227374 ) ) ;
#199 = COORDINATED_UNIVERSAL_TIME_OFFSET ( 2, 0, .AHEAD. ) ;
#200 = PLANE ( 'NONE',  #45 ) ;
#201 = PRODUCT_DEFINITION_SHAPE ( 'NONE', 'NONE',  #22 ) ;
ENDSEC;
END-ISO-10303-21;
