ISO-10303-21;
HEADER;
FILE_DESCRIPTION (( 'STEP AP203' ),
    '1' );
FILE_NAME ('010-1235E_UVFS_PCV_window.STEP',
    '2021-02-25T11:58:21',
    ( '' ),
    ( '' ),
    'SwSTEP 2.0',
    'SolidWorks 2019',
    '' );
FILE_SCHEMA (( 'CONFIG_CONTROL_DESIGN' ));
ENDSEC;

DATA;
#1 = APPLICATION_PROTOCOL_DEFINITION ( 'international standard', 'config_control_design', 1994, #197 ) ;
#2 = CALENDAR_DATE ( 2021, 25, 2 ) ;
#3 = PERSON_AND_ORGANIZATION_ROLE ( 'creator' ) ;
#4 = SHAPE_DEFINITION_REPRESENTATION ( #27, #198 ) ;
#5 = ADVANCED_FACE ( 'NONE', ( #144 ), #191, .T. ) ;
#6 = CALENDAR_DATE ( 2021, 25, 2 ) ;
#7 = ORIENTED_EDGE ( 'NONE', *, *, #107, .T. ) ;
#8 = EDGE_CURVE ( 'NONE', #89, #9, #77, .T. ) ;
#9 = VERTEX_POINT ( 'NONE', #95 ) ;
#10 = ORIENTED_EDGE ( 'NONE', *, *, #146, .F. ) ;
#11 = DIRECTION ( 'NONE',  ( 0.000000000000000000, -1.000000000000000000, -0.000000000000000000 ) ) ;
#12 = CIRCLE ( 'NONE', #131, 12.69999999999999929 ) ;
#13 = FACE_OUTER_BOUND ( 'NONE', #174, .T. ) ;
#14 = DIRECTION ( 'NONE',  ( 1.000000000000000000, 0.000000000000000000, 0.000000000000000000 ) ) ;
#15 = AXIS2_PLACEMENT_3D ( 'NONE', #153, #11, #180 ) ;
#16 = APPROVAL ( #99, 'UNSPECIFIED' ) ;
#17 = DIRECTION ( 'NONE',  ( 1.000000000000000000, 0.000000000000000000, 0.000000000000000000 ) ) ;
#18 = APPROVAL_ROLE ( '' ) ;
#19 = CALENDAR_DATE ( 2021, 25, 2 ) ;
#20 = VERTEX_POINT ( 'NONE', #47 ) ;
#21 = MECHANICAL_CONTEXT ( 'NONE', #78, 'mechanical' ) ;
#22 = EDGE_CURVE ( 'NONE', #175, #20, #137, .T. ) ;
#23 = ORIENTED_EDGE ( 'NONE', *, *, #196, .F. ) ;
#24 = CIRCLE ( 'NONE', #128, 12.70000000004731788 ) ;
#25 = ORIENTED_EDGE ( 'NONE', *, *, #102, .F. ) ;
#26 = ORIENTED_EDGE ( 'NONE', *, *, #31, .F. ) ;
#27 = PRODUCT_DEFINITION_SHAPE ( 'NONE', 'NONE',  #56 ) ;
#28 = DIRECTION ( 'NONE',  ( 0.000000000000000000, -1.000000000000000000, -0.000000000000000000 ) ) ;
#29 = CC_DESIGN_PERSON_AND_ORGANIZATION_ASSIGNMENT ( #173, #170, ( #58 ) ) ;
#30 = LOCAL_TIME ( 13, 58, 21.00000000000000000, #84 ) ;
#31 = EDGE_CURVE ( 'NONE', #20, #193, #142, .T. ) ;
#32 = SPHERICAL_SURFACE ( 'NONE', #186, 6000.000000000000000 ) ;
#33 = AXIS2_PLACEMENT_3D ( 'NONE', #54, #171, #74 ) ;
#34 = DIRECTION ( 'NONE',  ( 0.000000000000000000, 1.000000000000000000, -0.000000000000000000 ) ) ;
#35 = DIRECTION ( 'NONE',  ( 1.000000000000000000, 1.224646799147353207E-16, 0.000000000000000000 ) ) ;
#36 = CYLINDRICAL_SURFACE ( 'NONE', #61, 12.69999999999999929 ) ;
#37 = APPROVAL ( #67, 'UNSPECIFIED' ) ;
#38 = DATE_TIME_ROLE ( 'classification_date' ) ;
#39 = CALENDAR_DATE ( 2021, 25, 2 ) ;
#40 = CC_DESIGN_APPROVAL ( #178, ( #85 ) ) ;
#41 = ORIENTED_EDGE ( 'NONE', *, *, #146, .T. ) ;
#42 = AXIS2_PLACEMENT_3D ( 'NONE', #190, #192, #17 ) ;
#43 = CC_DESIGN_PERSON_AND_ORGANIZATION_ASSIGNMENT ( #49, #127, ( #58 ) ) ;
#44 = CC_DESIGN_APPROVAL ( #37, ( #56 ) ) ;
#45 = DIRECTION ( 'NONE',  ( 1.000000000000000000, 0.000000000000000000, -0.000000000000000000 ) ) ;
#46 = DIRECTION ( 'NONE',  ( 1.000000000000000000, 0.000000000000000000, 0.000000000000000000 ) ) ;
#47 = CARTESIAN_POINT ( 'NONE',  ( -12.69999999999999929, 0.000000000000000000, 0.000000000000000000 ) ) ;
#48 = DIRECTION ( 'NONE',  ( -0.000000000000000000, -0.000000000000000000, -1.000000000000000000 ) ) ;
#49 = PERSON_AND_ORGANIZATION ( #109, #194 ) ;
#50 = LOCAL_TIME ( 13, 58, 21.00000000000000000, #140 ) ;
#51 = APPROVAL_STATUS ( 'not_yet_approved' ) ;
#52 = ADVANCED_FACE ( 'NONE', ( #201 ), #179, .F. ) ;
#53 = PERSON_AND_ORGANIZATION ( #109, #194 ) ;
#54 = CARTESIAN_POINT ( 'NONE',  ( 0.000000000000000000, 0.000000000000000000, 6.000000000000000000 ) ) ;
#55 = DATE_AND_TIME ( #6, #100 ) ;
#56 = PRODUCT_DEFINITION ( 'UNKNOWN', '', #58, #83 ) ;
#57 = ORIENTED_EDGE ( 'NONE', *, *, #8, .T. ) ;
#58 = PRODUCT_DEFINITION_FORMATION_WITH_SPECIFIED_SOURCE ( 'ANY', '', #94, .NOT_KNOWN. ) ;
#59 = ADVANCED_FACE ( 'NONE', ( #152 ), #32, .F. ) ;
#60 = DIRECTION ( 'NONE',  ( 0.000000000000000000, 0.000000000000000000, 1.000000000000000000 ) ) ;
#61 = AXIS2_PLACEMENT_3D ( 'NONE', #199, #91, #108 ) ;
#62 = SPHERICAL_SURFACE ( 'NONE', #15, 6000.000000000000000 ) ;
#63 = DIRECTION ( 'NONE',  ( 1.000000000000000000, 0.000000000000000000, 0.000000000000000000 ) ) ;
#64 = CARTESIAN_POINT ( 'NONE',  ( 12.69999999999999929, 1.555301434917138433E-15, 0.000000000000000000 ) ) ;
#65 = ADVANCED_FACE ( 'NONE', ( #151 ), #36, .T. ) ;
#66 = DIRECTION ( 'NONE',  ( -0.000000000000000000, -0.000000000000000000, -1.000000000000000000 ) ) ;
#67 = APPROVAL_STATUS ( 'not_yet_approved' ) ;
#68 = PERSON_AND_ORGANIZATION_ROLE ( 'design_owner' ) ;
#69 = APPROVAL_DATE_TIME ( #55, #16 ) ;
#70 = ORIENTED_EDGE ( 'NONE', *, *, #31, .T. ) ;
#71 = APPROVAL_PERSON_ORGANIZATION ( #156, #16, #188 ) ;
#72 = UNCERTAINTY_MEASURE_WITH_UNIT (LENGTH_MEASURE( 1.000000000000000082E-05 ), #121, 'distance_accuracy_value', 'NONE');
#73 = EDGE_LOOP ( 'NONE', ( #158, #101, #7, #133 ) ) ;
#74 = DIRECTION ( 'NONE',  ( -1.000000000000000000, 0.000000000000000000, 0.000000000000000000 ) ) ;
#75 = CIRCLE ( 'NONE', #181, 6000.000000000000000 ) ;
#76 = CARTESIAN_POINT ( 'NONE',  ( 0.000000000000000000, 0.000000000000000000, 0.000000000000000000 ) ) ;
#77 = CIRCLE ( 'NONE', #105, 6000.000000000000000 ) ;
#78 = APPLICATION_CONTEXT ( 'configuration controlled 3d designs of mechanical parts and assemblies' ) ;
#79 = CARTESIAN_POINT ( 'NONE',  ( 7.372574772901430151E-13, 0.000000000000000000, 6005.986559151611800 ) ) ;
#80 = CARTESIAN_POINT ( 'NONE',  ( 7.372574772901430151E-13, 0.000000000000000000, 6005.986559151611800 ) ) ;
#81 = EDGE_CURVE ( 'NONE', #89, #193, #165, .T. ) ;
#82 = CARTESIAN_POINT ( 'NONE',  ( 12.70000000004805507, 1.555301434923023532E-15, 6.000000000000227374 ) ) ;
#83 = DESIGN_CONTEXT ( 'detailed design', #197, 'design' ) ;
#84 = COORDINATED_UNIVERSAL_TIME_OFFSET ( 2, 0, .AHEAD. ) ;
#85 = SECURITY_CLASSIFICATION ( '', '', #116 ) ;
#86 = DATE_AND_TIME ( #19, #30 ) ;
#87 = DATE_AND_TIME ( #2, #176 ) ;
#88 = PRODUCT_RELATED_PRODUCT_CATEGORY ( 'detail', '', ( #94 ) ) ;
#89 = VERTEX_POINT ( 'NONE', #82 ) ;
#90 = ORIENTED_EDGE ( 'NONE', *, *, #8, .F. ) ;
#91 = DIRECTION ( 'NONE',  ( -0.000000000000000000, -0.000000000000000000, -1.000000000000000000 ) ) ;
#92 = ADVANCED_FACE ( 'NONE', ( #13 ), #62, .F. ) ;
#93 = AXIS2_PLACEMENT_3D ( 'NONE', #136, #134, #45 ) ;
#94 = PRODUCT ( '010-1235E_UVFS_PCV_window', '010-1235E_UVFS_PCV_window', '', ( #21 ) ) ;
#95 = CARTESIAN_POINT ( 'NONE',  ( 1.104651517034348863E-12, 0.000000000000000000, 5.986559151612169671 ) ) ;
#96 = APPROVAL_PERSON_ORGANIZATION ( #53, #37, #18 ) ;
#97 = PERSON_AND_ORGANIZATION ( #109, #194 ) ;
#98 = PERSON_AND_ORGANIZATION ( #109, #194 ) ;
#99 = APPROVAL_STATUS ( 'not_yet_approved' ) ;
#100 = LOCAL_TIME ( 13, 58, 21.00000000000000000, #145 ) ;
#101 = ORIENTED_EDGE ( 'NONE', *, *, #81, .T. ) ;
#102 = EDGE_CURVE ( 'NONE', #175, #89, #106, .T. ) ;
#103 = PERSON_AND_ORGANIZATION ( #109, #194 ) ;
#104 = EDGE_LOOP ( 'NONE', ( #25, #132, #90 ) ) ;
#105 = AXIS2_PLACEMENT_3D ( 'NONE', #79, #34, #183 ) ;
#106 = CIRCLE ( 'NONE', #166, 12.70000000004731788 ) ;
#107 = EDGE_CURVE ( 'NONE', #193, #20, #12, .T. ) ;
#108 = DIRECTION ( 'NONE',  ( -1.000000000000000000, 0.000000000000000000, 0.000000000000000000 ) ) ;
#109 = PERSON ( 'UNSPECIFIED', 'UNSPECIFIED', 'UNSPECIFIED', ('UNSPECIFIED'), ('UNSPECIFIED'), ('UNSPECIFIED') ) ;
#110 = DIRECTION ( 'NONE',  ( 1.000000000000000000, 0.000000000000000000, 0.000000000000000000 ) ) ;
#111 = DIRECTION ( 'NONE',  ( 1.224646799147353207E-16, -1.000000000000000000, 0.000000000000000000 ) ) ;
#112 = DIRECTION ( 'NONE',  ( 1.000000000000000000, 0.000000000000000000, 0.000000000000000000 ) ) ;
#113 = PERSON_AND_ORGANIZATION_ROLE ( 'classification_officer' ) ;
#114 = VECTOR ( 'NONE', #125, 1000.000000000000000 ) ;
#115 =( NAMED_UNIT ( * ) SI_UNIT ( $, .STERADIAN. ) SOLID_ANGLE_UNIT ( ) );
#116 = SECURITY_CLASSIFICATION_LEVEL ( 'unclassified' ) ;
#117 = EDGE_LOOP ( 'NONE', ( #26, #119 ) ) ;
#118 = APPLICATION_PROTOCOL_DEFINITION ( 'international standard', 'config_control_design', 1994, #78 ) ;
#119 = ORIENTED_EDGE ( 'NONE', *, *, #107, .F. ) ;
#120 = EDGE_LOOP ( 'NONE', ( #189, #41, #169, #70 ) ) ;
#121 =( LENGTH_UNIT ( ) NAMED_UNIT ( * ) SI_UNIT ( .MILLI., .METRE. ) );
#122 = CC_DESIGN_DATE_AND_TIME_ASSIGNMENT ( #157, #38, ( #85 ) ) ;
#123 = CARTESIAN_POINT ( 'NONE',  ( 12.69999999999999929, 1.555301434917138433E-15, 6.000000000000000000 ) ) ;
#124 = CARTESIAN_POINT ( 'NONE',  ( 7.372574772901430151E-13, 0.000000000000000000, 6005.986559151611800 ) ) ;
#125 = DIRECTION ( 'NONE',  ( -0.000000000000000000, -0.000000000000000000, -1.000000000000000000 ) ) ;
#126 = DATE_AND_TIME ( #130, #50 ) ;
#127 = PERSON_AND_ORGANIZATION_ROLE ( 'design_supplier' ) ;
#128 = AXIS2_PLACEMENT_3D ( 'NONE', #138, #200, #112 ) ;
#129 = DATE_TIME_ROLE ( 'creation_date' ) ;
#130 = CALENDAR_DATE ( 2021, 25, 2 ) ;
#131 = AXIS2_PLACEMENT_3D ( 'NONE', #182, #164, #63 ) ;
#132 = ORIENTED_EDGE ( 'NONE', *, *, #196, .T. ) ;
#133 = ORIENTED_EDGE ( 'NONE', *, *, #22, .F. ) ;
#134 = DIRECTION ( 'NONE',  ( 0.000000000000000000, 0.000000000000000000, 1.000000000000000000 ) ) ;
#135 =( GEOMETRIC_REPRESENTATION_CONTEXT ( 3 ) GLOBAL_UNCERTAINTY_ASSIGNED_CONTEXT ( ( #72 ) ) GLOBAL_UNIT_ASSIGNED_CONTEXT ( ( #121, #141, #115 ) ) REPRESENTATION_CONTEXT ( 'NONE', 'WORKASPACE' ) );
#136 = CARTESIAN_POINT ( 'NONE',  ( 0.000000000000000000, 0.000000000000000000, 0.000000000000000000 ) ) ;
#137 = LINE ( 'NONE', #148, #114 ) ;
#138 = CARTESIAN_POINT ( 'NONE',  ( 7.372574772901430151E-13, 0.000000000000000000, 6.000000000000227374 ) ) ;
#139 = VECTOR ( 'NONE', #66, 1000.000000000000000 ) ;
#140 = COORDINATED_UNIVERSAL_TIME_OFFSET ( 2, 0, .AHEAD. ) ;
#141 =( NAMED_UNIT ( * ) PLANE_ANGLE_UNIT ( ) SI_UNIT ( $, .RADIAN. ) );
#142 = CIRCLE ( 'NONE', #160, 12.69999999999999929 ) ;
#143 = APPROVAL_DATE_TIME ( #86, #178 ) ;
#144 = FACE_OUTER_BOUND ( 'NONE', #73, .T. ) ;
#145 = COORDINATED_UNIVERSAL_TIME_OFFSET ( 2, 0, .AHEAD. ) ;
#146 = EDGE_CURVE ( 'NONE', #89, #175, #24, .T. ) ;
#147 = CC_DESIGN_PERSON_AND_ORGANIZATION_ASSIGNMENT ( #103, #68, ( #94 ) ) ;
#148 = CARTESIAN_POINT ( 'NONE',  ( -12.69999999999999929, 0.000000000000000000, 6.000000000000000000 ) ) ;
#149 = CC_DESIGN_SECURITY_CLASSIFICATION ( #85, ( #58 ) ) ;
#150 = LOCAL_TIME ( 13, 58, 21.00000000000000000, #167 ) ;
#151 = FACE_OUTER_BOUND ( 'NONE', #120, .T. ) ;
#152 = FACE_OUTER_BOUND ( 'NONE', #104, .T. ) ;
#153 = CARTESIAN_POINT ( 'NONE',  ( 7.372574772901430151E-13, 0.000000000000000000, 6005.986559151611800 ) ) ;
#154 = CLOSED_SHELL ( 'NONE', ( #59, #5, #65, #52, #92 ) ) ;
#155 = CC_DESIGN_PERSON_AND_ORGANIZATION_ASSIGNMENT ( #98, #3, ( #56 ) ) ;
#156 = PERSON_AND_ORGANIZATION ( #109, #194 ) ;
#157 = DATE_AND_TIME ( #39, #150 ) ;
#158 = ORIENTED_EDGE ( 'NONE', *, *, #102, .T. ) ;
#159 = COORDINATED_UNIVERSAL_TIME_OFFSET ( 2, 0, .AHEAD. ) ;
#160 = AXIS2_PLACEMENT_3D ( 'NONE', #76, #60, #110 ) ;
#161 = MANIFOLD_SOLID_BREP ( 'Cut-Revolve1', #154 ) ;
#162 = CC_DESIGN_APPROVAL ( #16, ( #58 ) ) ;
#163 = CARTESIAN_POINT ( 'NONE',  ( 7.372574772901430151E-13, 0.000000000000000000, 6.000000000000227374 ) ) ;
#164 = DIRECTION ( 'NONE',  ( 0.000000000000000000, 0.000000000000000000, 1.000000000000000000 ) ) ;
#165 = LINE ( 'NONE', #123, #139 ) ;
#166 = AXIS2_PLACEMENT_3D ( 'NONE', #163, #48, #46 ) ;
#167 = COORDINATED_UNIVERSAL_TIME_OFFSET ( 2, 0, .AHEAD. ) ;
#168 = APPROVAL_ROLE ( '' ) ;
#169 = ORIENTED_EDGE ( 'NONE', *, *, #22, .T. ) ;
#170 = PERSON_AND_ORGANIZATION_ROLE ( 'creator' ) ;
#171 = DIRECTION ( 'NONE',  ( -0.000000000000000000, -0.000000000000000000, -1.000000000000000000 ) ) ;
#172 = CC_DESIGN_PERSON_AND_ORGANIZATION_ASSIGNMENT ( #187, #113, ( #85 ) ) ;
#173 = PERSON_AND_ORGANIZATION ( #109, #194 ) ;
#174 = EDGE_LOOP ( 'NONE', ( #23, #10, #57 ) ) ;
#175 = VERTEX_POINT ( 'NONE', #195 ) ;
#176 = LOCAL_TIME ( 13, 58, 21.00000000000000000, #159 ) ;
#177 = APPROVAL_PERSON_ORGANIZATION ( #97, #178, #168 ) ;
#178 = APPROVAL ( #51, 'UNSPECIFIED' ) ;
#179 = PLANE ( 'NONE',  #93 ) ;
#180 = DIRECTION ( 'NONE',  ( 1.000000000000000000, 0.000000000000000000, 0.000000000000000000 ) ) ;
#181 = AXIS2_PLACEMENT_3D ( 'NONE', #124, #111, #35 ) ;
#182 = CARTESIAN_POINT ( 'NONE',  ( 0.000000000000000000, 0.000000000000000000, 0.000000000000000000 ) ) ;
#183 = DIRECTION ( 'NONE',  ( 0.000000000000000000, 0.000000000000000000, 1.000000000000000000 ) ) ;
#184 = CC_DESIGN_DATE_AND_TIME_ASSIGNMENT ( #87, #129, ( #56 ) ) ;
#185 = APPROVAL_DATE_TIME ( #126, #37 ) ;
#186 = AXIS2_PLACEMENT_3D ( 'NONE', #80, #28, #14 ) ;
#187 = PERSON_AND_ORGANIZATION ( #109, #194 ) ;
#188 = APPROVAL_ROLE ( '' ) ;
#189 = ORIENTED_EDGE ( 'NONE', *, *, #81, .F. ) ;
#190 = CARTESIAN_POINT ( 'NONE',  ( 0.000000000000000000, 0.000000000000000000, 0.000000000000000000 ) ) ;
#191 = CYLINDRICAL_SURFACE ( 'NONE', #33, 12.69999999999999929 ) ;
#192 = DIRECTION ( 'NONE',  ( 0.000000000000000000, 0.000000000000000000, 1.000000000000000000 ) ) ;
#193 = VERTEX_POINT ( 'NONE', #64 ) ;
#194 = ORGANIZATION ( 'UNSPECIFIED', 'UNSPECIFIED', '' ) ;
#195 = CARTESIAN_POINT ( 'NONE',  ( -12.70000000004658069, 0.000000000000000000, 6.000000000000227374 ) ) ;
#196 = EDGE_CURVE ( 'NONE', #175, #9, #75, .T. ) ;
#197 = APPLICATION_CONTEXT ( 'configuration controlled 3d designs of mechanical parts and assemblies' ) ;
#198 = ADVANCED_BREP_SHAPE_REPRESENTATION ( '010-1235E_UVFS_PCV_window', ( #161, #42 ), #135 ) ;
#199 = CARTESIAN_POINT ( 'NONE',  ( 0.000000000000000000, 0.000000000000000000, 6.000000000000000000 ) ) ;
#200 = DIRECTION ( 'NONE',  ( -0.000000000000000000, -0.000000000000000000, -1.000000000000000000 ) ) ;
#201 = FACE_OUTER_BOUND ( 'NONE', #117, .T. ) ;
ENDSEC;
END-ISO-10303-21;
