ISO-10303-21;
HEADER;
FILE_DESCRIPTION (( 'STEP AP203' ),
    '1' );
FILE_NAME ('010-1230E_UVFS_PCV_window.STEP',
    '2021-02-25T11:58:01',
    ( '' ),
    ( '' ),
    'SwSTEP 2.0',
    'SolidWorks 2019',
    '' );
FILE_SCHEMA (( 'CONFIG_CONTROL_DESIGN' ));
ENDSEC;

DATA;
#1 = DIRECTION ( 'NONE',  ( -0.000000000000000000, -0.000000000000000000, -1.000000000000000000 ) ) ;
#2 = CARTESIAN_POINT ( 'NONE',  ( 0.000000000000000000, 0.000000000000000000, 0.000000000000000000 ) ) ;
#3 = EDGE_CURVE ( 'NONE', #16, #135, #12, .T. ) ;
#4 = FACE_OUTER_BOUND ( 'NONE', #186, .T. ) ;
#5 = DIRECTION ( 'NONE',  ( 1.000000000000000000, 0.000000000000000000, 0.000000000000000000 ) ) ;
#6 = CALENDAR_DATE ( 2021, 25, 2 ) ;
#7 = AXIS2_PLACEMENT_3D ( 'NONE', #196, #79, #173 ) ;
#8 = DATE_TIME_ROLE ( 'creation_date' ) ;
#9 = CIRCLE ( 'NONE', #138, 12.69999999990744755 ) ;
#10 = SHAPE_DEFINITION_REPRESENTATION ( #124, #151 ) ;
#11 = CALENDAR_DATE ( 2021, 25, 2 ) ;
#12 = CIRCLE ( 'NONE', #175, 4999.999999999999091 ) ;
#13 = ORIENTED_EDGE ( 'NONE', *, *, #178, .T. ) ;
#14 = EDGE_LOOP ( 'NONE', ( #41, #184, #13, #43 ) ) ;
#15 = PERSON ( 'UNSPECIFIED', 'UNSPECIFIED', 'UNSPECIFIED', ('UNSPECIFIED'), ('UNSPECIFIED'), ('UNSPECIFIED') ) ;
#16 = VERTEX_POINT ( 'NONE', #144 ) ;
#17 = PRODUCT_DEFINITION ( 'UNKNOWN', '', #104, #127 ) ;
#18 = LOCAL_TIME ( 13, 58, 1.000000000000000000, #55 ) ;
#19 = SPHERICAL_SURFACE ( 'NONE', #152, 5000.000000000000000 ) ;
#20 = CARTESIAN_POINT ( 'NONE',  ( 6.140921104957897114E-13, 0.000000000000000000, 5005.983870973986086 ) ) ;
#21 = CALENDAR_DATE ( 2021, 25, 2 ) ;
#22 = DIRECTION ( 'NONE',  ( 1.000000000000000000, 1.224646799147353207E-16, 0.000000000000000000 ) ) ;
#23 = DATE_AND_TIME ( #56, #192 ) ;
#24 = AXIS2_PLACEMENT_3D ( 'NONE', #20, #49, #22 ) ;
#25 = SECURITY_CLASSIFICATION_LEVEL ( 'unclassified' ) ;
#26 = CARTESIAN_POINT ( 'NONE',  ( 0.000000000000000000, 0.000000000000000000, 0.000000000000000000 ) ) ;
#27 = AXIS2_PLACEMENT_3D ( 'NONE', #99, #126, #112 ) ;
#28 = APPROVAL ( #80, 'UNSPECIFIED' ) ;
#29 = ORIENTED_EDGE ( 'NONE', *, *, #90, .F. ) ;
#30 = CLOSED_SHELL ( 'NONE', ( #120, #136, #74, #37, #68 ) ) ;
#31 = CC_DESIGN_PERSON_AND_ORGANIZATION_ASSIGNMENT ( #67, #118, ( #104 ) ) ;
#32 = LOCAL_TIME ( 13, 58, 1.000000000000000000, #164 ) ;
#33 = FACE_OUTER_BOUND ( 'NONE', #14, .T. ) ;
#34 = DIRECTION ( 'NONE',  ( 1.000000000000000000, 0.000000000000000000, 0.000000000000000000 ) ) ;
#35 = FACE_OUTER_BOUND ( 'NONE', #89, .T. ) ;
#36 = APPLICATION_PROTOCOL_DEFINITION ( 'international standard', 'config_control_design', 1994, #70 ) ;
#37 = ADVANCED_FACE ( 'NONE', ( #63 ), #141, .F. ) ;
#38 = CC_DESIGN_SECURITY_CLASSIFICATION ( #156, ( #104 ) ) ;
#39 = CALENDAR_DATE ( 2021, 25, 2 ) ;
#40 = PERSON_AND_ORGANIZATION ( #15, #77 ) ;
#41 = ORIENTED_EDGE ( 'NONE', *, *, #170, .F. ) ;
#42 = APPROVAL_PERSON_ORGANIZATION ( #71, #44, #103 ) ;
#43 = ORIENTED_EDGE ( 'NONE', *, *, #54, .T. ) ;
#44 = APPROVAL ( #179, 'UNSPECIFIED' ) ;
#45 = DIRECTION ( 'NONE',  ( -0.000000000000000000, -0.000000000000000000, -1.000000000000000000 ) ) ;
#46 = AXIS2_PLACEMENT_3D ( 'NONE', #128, #93, #34 ) ;
#47 = DIRECTION ( 'NONE',  ( 0.000000000000000000, 1.000000000000000000, -0.000000000000000000 ) ) ;
#48 =( GEOMETRIC_REPRESENTATION_CONTEXT ( 3 ) GLOBAL_UNCERTAINTY_ASSIGNED_CONTEXT ( ( #158 ) ) GLOBAL_UNIT_ASSIGNED_CONTEXT ( ( #182, #134, #167 ) ) REPRESENTATION_CONTEXT ( 'NONE', 'WORKASPACE' ) );
#49 = DIRECTION ( 'NONE',  ( 1.224646799147353207E-16, -1.000000000000000000, 0.000000000000000000 ) ) ;
#50 = PERSON_AND_ORGANIZATION ( #15, #77 ) ;
#51 = CYLINDRICAL_SURFACE ( 'NONE', #27, 12.69999999999999929 ) ;
#52 = CIRCLE ( 'NONE', #7, 12.69999999999999929 ) ;
#53 = CARTESIAN_POINT ( 'NONE',  ( 9.202538102826278847E-13, 0.000000000000000000, 5.983870973985894182 ) ) ;
#54 = EDGE_CURVE ( 'NONE', #200, #119, #52, .T. ) ;
#55 = COORDINATED_UNIVERSAL_TIME_OFFSET ( 2, 0, .AHEAD. ) ;
#56 = CALENDAR_DATE ( 2021, 25, 2 ) ;
#57 = MECHANICAL_CONTEXT ( 'NONE', #177, 'mechanical' ) ;
#58 = ORIENTED_EDGE ( 'NONE', *, *, #106, .T. ) ;
#59 = AXIS2_PLACEMENT_3D ( 'NONE', #195, #1, #95 ) ;
#60 = ORIENTED_EDGE ( 'NONE', *, *, #54, .F. ) ;
#61 = AXIS2_PLACEMENT_3D ( 'NONE', #26, #87, #149 ) ;
#62 = CC_DESIGN_PERSON_AND_ORGANIZATION_ASSIGNMENT ( #100, #197, ( #92 ) ) ;
#63 = FACE_OUTER_BOUND ( 'NONE', #154, .T. ) ;
#64 = DIRECTION ( 'NONE',  ( 0.000000000000000000, -1.000000000000000000, -0.000000000000000000 ) ) ;
#65 = DIRECTION ( 'NONE',  ( 0.000000000000000000, 0.000000000000000000, 1.000000000000000000 ) ) ;
#66 = DIRECTION ( 'NONE',  ( 1.000000000000000000, 0.000000000000000000, -0.000000000000000000 ) ) ;
#67 = PERSON_AND_ORGANIZATION ( #15, #77 ) ;
#68 = ADVANCED_FACE ( 'NONE', ( #4 ), #129, .F. ) ;
#69 = FACE_OUTER_BOUND ( 'NONE', #198, .T. ) ;
#70 = APPLICATION_CONTEXT ( 'configuration controlled 3d designs of mechanical parts and assemblies' ) ;
#71 = PERSON_AND_ORGANIZATION ( #15, #77 ) ;
#72 = APPROVAL_PERSON_ORGANIZATION ( #40, #185, #130 ) ;
#73 = DATE_AND_TIME ( #11, #187 ) ;
#74 = ADVANCED_FACE ( 'NONE', ( #33 ), #140, .T. ) ;
#75 = AXIS2_PLACEMENT_3D ( 'NONE', #159, #180, #82 ) ;
#76 = ORIENTED_EDGE ( 'NONE', *, *, #3, .T. ) ;
#77 = ORGANIZATION ( 'UNSPECIFIED', 'UNSPECIFIED', '' ) ;
#78 = CARTESIAN_POINT ( 'NONE',  ( 6.140921104957897114E-13, 0.000000000000000000, 6.000000000000227374 ) ) ;
#79 = DIRECTION ( 'NONE',  ( 0.000000000000000000, 0.000000000000000000, 1.000000000000000000 ) ) ;
#80 = APPROVAL_STATUS ( 'not_yet_approved' ) ;
#81 = CC_DESIGN_DATE_AND_TIME_ASSIGNMENT ( #146, #8, ( #17 ) ) ;
#82 = DIRECTION ( 'NONE',  ( 1.000000000000000000, 0.000000000000000000, 0.000000000000000000 ) ) ;
#83 = AXIS2_PLACEMENT_3D ( 'NONE', #142, #96, #66 ) ;
#84 = APPROVAL_DATE_TIME ( #23, #28 ) ;
#85 = APPROVAL_DATE_TIME ( #73, #185 ) ;
#86 = CC_DESIGN_APPROVAL ( #28, ( #17 ) ) ;
#87 = DIRECTION ( 'NONE',  ( 0.000000000000000000, 0.000000000000000000, 1.000000000000000000 ) ) ;
#88 = APPROVAL_STATUS ( 'not_yet_approved' ) ;
#89 = EDGE_LOOP ( 'NONE', ( #121, #122, #58, #172 ) ) ;
#90 = EDGE_CURVE ( 'NONE', #108, #135, #105, .T. ) ;
#91 = ORIENTED_EDGE ( 'NONE', *, *, #97, .F. ) ;
#92 = PRODUCT ( '010-1230E_UVFS_PCV_window', '010-1230E_UVFS_PCV_window', '', ( #57 ) ) ;
#93 = DIRECTION ( 'NONE',  ( 0.000000000000000000, -1.000000000000000000, -0.000000000000000000 ) ) ;
#94 = CC_DESIGN_APPROVAL ( #185, ( #156 ) ) ;
#95 = DIRECTION ( 'NONE',  ( -1.000000000000000000, 0.000000000000000000, 0.000000000000000000 ) ) ;
#96 = DIRECTION ( 'NONE',  ( 0.000000000000000000, 0.000000000000000000, 1.000000000000000000 ) ) ;
#97 = EDGE_CURVE ( 'NONE', #16, #108, #125, .T. ) ;
#98 = LINE ( 'NONE', #160, #174 ) ;
#99 = CARTESIAN_POINT ( 'NONE',  ( 0.000000000000000000, 0.000000000000000000, 6.000000000000000000 ) ) ;
#100 = PERSON_AND_ORGANIZATION ( #15, #77 ) ;
#101 = DIRECTION ( 'NONE',  ( 1.000000000000000000, 0.000000000000000000, 0.000000000000000000 ) ) ;
#102 = DATE_AND_TIME ( #39, #201 ) ;
#103 = APPROVAL_ROLE ( '' ) ;
#104 = PRODUCT_DEFINITION_FORMATION_WITH_SPECIFIED_SOURCE ( 'ANY', '', #92, .NOT_KNOWN. ) ;
#105 = CIRCLE ( 'NONE', #24, 5000.000000000000000 ) ;
#106 = EDGE_CURVE ( 'NONE', #119, #200, #163, .T. ) ;
#107 = VECTOR ( 'NONE', #45, 1000.000000000000000 ) ;
#108 = VERTEX_POINT ( 'NONE', #190 ) ;
#109 = CARTESIAN_POINT ( 'NONE',  ( 6.140921104957897114E-13, 0.000000000000000000, 5005.983870973986086 ) ) ;
#110 = CARTESIAN_POINT ( 'NONE',  ( 6.140921104957897114E-13, 0.000000000000000000, 5005.983870973986086 ) ) ;
#111 = PERSON_AND_ORGANIZATION_ROLE ( 'creator' ) ;
#112 = DIRECTION ( 'NONE',  ( -1.000000000000000000, 0.000000000000000000, 0.000000000000000000 ) ) ;
#113 = DATE_TIME_ROLE ( 'classification_date' ) ;
#114 = DIRECTION ( 'NONE',  ( 1.000000000000000000, 0.000000000000000000, 0.000000000000000000 ) ) ;
#115 = PERSON_AND_ORGANIZATION ( #15, #77 ) ;
#116 = APPLICATION_PROTOCOL_DEFINITION ( 'international standard', 'config_control_design', 1994, #177 ) ;
#117 = PERSON_AND_ORGANIZATION_ROLE ( 'classification_officer' ) ;
#118 = PERSON_AND_ORGANIZATION_ROLE ( 'design_supplier' ) ;
#119 = VERTEX_POINT ( 'NONE', #131 ) ;
#120 = ADVANCED_FACE ( 'NONE', ( #69 ), #19, .F. ) ;
#121 = ORIENTED_EDGE ( 'NONE', *, *, #199, .T. ) ;
#122 = ORIENTED_EDGE ( 'NONE', *, *, #170, .T. ) ;
#123 = CC_DESIGN_PERSON_AND_ORGANIZATION_ASSIGNMENT ( #150, #181, ( #104 ) ) ;
#124 = PRODUCT_DEFINITION_SHAPE ( 'NONE', 'NONE',  #17 ) ;
#125 = CIRCLE ( 'NONE', #75, 12.69999999990744755 ) ;
#126 = DIRECTION ( 'NONE',  ( -0.000000000000000000, -0.000000000000000000, -1.000000000000000000 ) ) ;
#127 = DESIGN_CONTEXT ( 'detailed design', #70, 'design' ) ;
#128 = CARTESIAN_POINT ( 'NONE',  ( 6.140921104957897114E-13, 0.000000000000000000, 5005.983870973986086 ) ) ;
#129 = SPHERICAL_SURFACE ( 'NONE', #46, 5000.000000000000000 ) ;
#130 = APPROVAL_ROLE ( '' ) ;
#131 = CARTESIAN_POINT ( 'NONE',  ( 12.69999999999999929, 1.555301434917138433E-15, 0.000000000000000000 ) ) ;
#132 = COORDINATED_UNIVERSAL_TIME_OFFSET ( 2, 0, .AHEAD. ) ;
#133 = APPROVAL_DATE_TIME ( #169, #44 ) ;
#134 =( NAMED_UNIT ( * ) PLANE_ANGLE_UNIT ( ) SI_UNIT ( $, .RADIAN. ) );
#135 = VERTEX_POINT ( 'NONE', #53 ) ;
#136 = ADVANCED_FACE ( 'NONE', ( #35 ), #51, .T. ) ;
#137 = ORIENTED_EDGE ( 'NONE', *, *, #106, .F. ) ;
#138 = AXIS2_PLACEMENT_3D ( 'NONE', #78, #139, #101 ) ;
#139 = DIRECTION ( 'NONE',  ( -0.000000000000000000, -0.000000000000000000, -1.000000000000000000 ) ) ;
#140 = CYLINDRICAL_SURFACE ( 'NONE', #59, 12.69999999999999929 ) ;
#141 = PLANE ( 'NONE',  #83 ) ;
#142 = CARTESIAN_POINT ( 'NONE',  ( 0.000000000000000000, 0.000000000000000000, 0.000000000000000000 ) ) ;
#143 = COORDINATED_UNIVERSAL_TIME_OFFSET ( 2, 0, .AHEAD. ) ;
#144 = CARTESIAN_POINT ( 'NONE',  ( 12.69999999990806039, 1.555301434911509121E-15, 6.000000000000227374 ) ) ;
#145 = PRODUCT_RELATED_PRODUCT_CATEGORY ( 'detail', '', ( #92 ) ) ;
#146 = DATE_AND_TIME ( #21, #32 ) ;
#147 = CC_DESIGN_APPROVAL ( #44, ( #104 ) ) ;
#148 = PERSON_AND_ORGANIZATION ( #15, #77 ) ;
#149 = DIRECTION ( 'NONE',  ( 1.000000000000000000, 0.000000000000000000, 0.000000000000000000 ) ) ;
#150 = PERSON_AND_ORGANIZATION ( #15, #77 ) ;
#151 = ADVANCED_BREP_SHAPE_REPRESENTATION ( '010-1230E_UVFS_PCV_window', ( #155, #61 ), #48 ) ;
#152 = AXIS2_PLACEMENT_3D ( 'NONE', #109, #64, #114 ) ;
#153 = CC_DESIGN_PERSON_AND_ORGANIZATION_ASSIGNMENT ( #115, #117, ( #156 ) ) ;
#154 = EDGE_LOOP ( 'NONE', ( #60, #137 ) ) ;
#155 = MANIFOLD_SOLID_BREP ( 'Cut-Revolve1', #30 ) ;
#156 = SECURITY_CLASSIFICATION ( '', '', #25 ) ;
#157 = DIRECTION ( 'NONE',  ( 0.000000000000000000, 0.000000000000000000, 1.000000000000000000 ) ) ;
#158 = UNCERTAINTY_MEASURE_WITH_UNIT (LENGTH_MEASURE( 1.000000000000000082E-05 ), #182, 'distance_accuracy_value', 'NONE');
#159 = CARTESIAN_POINT ( 'NONE',  ( 6.140921104957897114E-13, 0.000000000000000000, 6.000000000000227374 ) ) ;
#160 = CARTESIAN_POINT ( 'NONE',  ( -12.69999999999999929, 0.000000000000000000, 6.000000000000000000 ) ) ;
#161 = CC_DESIGN_DATE_AND_TIME_ASSIGNMENT ( #102, #113, ( #156 ) ) ;
#162 = DIRECTION ( 'NONE',  ( -0.000000000000000000, -0.000000000000000000, -1.000000000000000000 ) ) ;
#163 = CIRCLE ( 'NONE', #189, 12.69999999999999929 ) ;
#164 = COORDINATED_UNIVERSAL_TIME_OFFSET ( 2, 0, .AHEAD. ) ;
#165 = CARTESIAN_POINT ( 'NONE',  ( -12.69999999999999929, 0.000000000000000000, 0.000000000000000000 ) ) ;
#166 = COORDINATED_UNIVERSAL_TIME_OFFSET ( 2, 0, .AHEAD. ) ;
#167 =( NAMED_UNIT ( * ) SI_UNIT ( $, .STERADIAN. ) SOLID_ANGLE_UNIT ( ) );
#168 = APPROVAL_PERSON_ORGANIZATION ( #148, #28, #193 ) ;
#169 = DATE_AND_TIME ( #6, #18 ) ;
#170 = EDGE_CURVE ( 'NONE', #16, #119, #191, .T. ) ;
#171 = ORIENTED_EDGE ( 'NONE', *, *, #199, .F. ) ;
#172 = ORIENTED_EDGE ( 'NONE', *, *, #178, .F. ) ;
#173 = DIRECTION ( 'NONE',  ( 1.000000000000000000, 0.000000000000000000, 0.000000000000000000 ) ) ;
#174 = VECTOR ( 'NONE', #162, 1000.000000000000000 ) ;
#175 = AXIS2_PLACEMENT_3D ( 'NONE', #110, #47, #65 ) ;
#176 = CARTESIAN_POINT ( 'NONE',  ( 12.69999999999999929, 1.555301434917138433E-15, 6.000000000000000000 ) ) ;
#177 = APPLICATION_CONTEXT ( 'configuration controlled 3d designs of mechanical parts and assemblies' ) ;
#178 = EDGE_CURVE ( 'NONE', #108, #200, #98, .T. ) ;
#179 = APPROVAL_STATUS ( 'not_yet_approved' ) ;
#180 = DIRECTION ( 'NONE',  ( -0.000000000000000000, -0.000000000000000000, -1.000000000000000000 ) ) ;
#181 = PERSON_AND_ORGANIZATION_ROLE ( 'creator' ) ;
#182 =( LENGTH_UNIT ( ) NAMED_UNIT ( * ) SI_UNIT ( .MILLI., .METRE. ) );
#183 = ORIENTED_EDGE ( 'NONE', *, *, #90, .T. ) ;
#184 = ORIENTED_EDGE ( 'NONE', *, *, #97, .T. ) ;
#185 = APPROVAL ( #88, 'UNSPECIFIED' ) ;
#186 = EDGE_LOOP ( 'NONE', ( #29, #91, #76 ) ) ;
#187 = LOCAL_TIME ( 13, 58, 1.000000000000000000, #166 ) ;
#188 = ORIENTED_EDGE ( 'NONE', *, *, #3, .F. ) ;
#189 = AXIS2_PLACEMENT_3D ( 'NONE', #2, #157, #5 ) ;
#190 = CARTESIAN_POINT ( 'NONE',  ( -12.69999999990683293, 0.000000000000000000, 6.000000000000227374 ) ) ;
#191 = LINE ( 'NONE', #176, #107 ) ;
#192 = LOCAL_TIME ( 13, 58, 1.000000000000000000, #143 ) ;
#193 = APPROVAL_ROLE ( '' ) ;
#194 = CC_DESIGN_PERSON_AND_ORGANIZATION_ASSIGNMENT ( #50, #111, ( #17 ) ) ;
#195 = CARTESIAN_POINT ( 'NONE',  ( 0.000000000000000000, 0.000000000000000000, 6.000000000000000000 ) ) ;
#196 = CARTESIAN_POINT ( 'NONE',  ( 0.000000000000000000, 0.000000000000000000, 0.000000000000000000 ) ) ;
#197 = PERSON_AND_ORGANIZATION_ROLE ( 'design_owner' ) ;
#198 = EDGE_LOOP ( 'NONE', ( #171, #183, #188 ) ) ;
#199 = EDGE_CURVE ( 'NONE', #108, #16, #9, .T. ) ;
#200 = VERTEX_POINT ( 'NONE', #165 ) ;
#201 = LOCAL_TIME ( 13, 58, 1.000000000000000000, #132 ) ;
ENDSEC;
END-ISO-10303-21;
