ISO-10303-21;
HEADER;
FILE_DESCRIPTION (( 'STEP AP203' ),
    '1' );
FILE_NAME ('010-1229E_UVFS_PCV_window.STEP',
    '2021-02-25T11:57:36',
    ( '' ),
    ( '' ),
    'SwSTEP 2.0',
    'SolidWorks 2019',
    '' );
FILE_SCHEMA (( 'CONFIG_CONTROL_DESIGN' ));
ENDSEC;

DATA;
#1 = VERTEX_POINT ( 'NONE', #190 ) ;
#2 = CC_DESIGN_SECURITY_CLASSIFICATION ( #38, ( #118 ) ) ;
#3 = DIRECTION ( 'NONE',  ( 1.000000000000000000, 0.000000000000000000, 0.000000000000000000 ) ) ;
#4 = LOCAL_TIME ( 13, 57, 36.00000000000000000, #53 ) ;
#5 = PRODUCT_RELATED_PRODUCT_CATEGORY ( 'detail', '', ( #105 ) ) ;
#6 = SPHERICAL_SURFACE ( 'NONE', #100, 4000.000000000000000 ) ;
#7 = CARTESIAN_POINT ( 'NONE',  ( 0.000000000000000000, 0.000000000000000000, 0.000000000000000000 ) ) ;
#8 = APPROVAL_DATE_TIME ( #153, #40 ) ;
#9 = PERSON_AND_ORGANIZATION_ROLE ( 'creator' ) ;
#10 = CALENDAR_DATE ( 2021, 25, 2 ) ;
#11 = LOCAL_TIME ( 13, 57, 36.00000000000000000, #102 ) ;
#12 = EDGE_CURVE ( 'NONE', #1, #201, #196, .T. ) ;
#13 = APPROVAL_STATUS ( 'not_yet_approved' ) ;
#14 = CIRCLE ( 'NONE', #41, 12.69999999997738271 ) ;
#15 = ORIENTED_EDGE ( 'NONE', *, *, #95, .F. ) ;
#16 = ADVANCED_FACE ( 'NONE', ( #98 ), #168, .F. ) ;
#17 = SPHERICAL_SURFACE ( 'NONE', #154, 4000.000000000000000 ) ;
#18 = CARTESIAN_POINT ( 'NONE',  ( 4.909267437014364077E-13, 0.000000000000000000, 4005.979838699190168 ) ) ;
#19 = AXIS2_PLACEMENT_3D ( 'NONE', #18, #147, #69 ) ;
#20 = CARTESIAN_POINT ( 'NONE',  ( 12.69999999999999929, 1.555301434917138433E-15, 0.000000000000000000 ) ) ;
#21 = CARTESIAN_POINT ( 'NONE',  ( 4.909267437014364077E-13, 0.000000000000000000, 5.999999999999783284 ) ) ;
#22 = PERSON_AND_ORGANIZATION ( #58, #106 ) ;
#23 = DATE_AND_TIME ( #172, #11 ) ;
#24 = EDGE_CURVE ( 'NONE', #141, #91, #155, .T. ) ;
#25 = CLOSED_SHELL ( 'NONE', ( #121, #186, #175, #16, #31 ) ) ;
#26 = PERSON_AND_ORGANIZATION_ROLE ( 'design_supplier' ) ;
#27 = MANIFOLD_SOLID_BREP ( 'Cut-Revolve1', #25 ) ;
#28 = ORIENTED_EDGE ( 'NONE', *, *, #24, .T. ) ;
#29 = AXIS2_PLACEMENT_3D ( 'NONE', #101, #171, #137 ) ;
#30 = ORIENTED_EDGE ( 'NONE', *, *, #158, .T. ) ;
#31 = ADVANCED_FACE ( 'NONE', ( #166 ), #6, .F. ) ;
#32 = ORIENTED_EDGE ( 'NONE', *, *, #60, .F. ) ;
#33 = AXIS2_PLACEMENT_3D ( 'NONE', #39, #131, #3 ) ;
#34 = DESIGN_CONTEXT ( 'detailed design', #170, 'design' ) ;
#35 = DIRECTION ( 'NONE',  ( 0.000000000000000000, 0.000000000000000000, 1.000000000000000000 ) ) ;
#36 = FACE_OUTER_BOUND ( 'NONE', #188, .T. ) ;
#37 = DIRECTION ( 'NONE',  ( 1.000000000000000000, 0.000000000000000000, 0.000000000000000000 ) ) ;
#38 = SECURITY_CLASSIFICATION ( '', '', #184 ) ;
#39 = CARTESIAN_POINT ( 'NONE',  ( 4.909267437014364077E-13, 0.000000000000000000, 5.999999999999783284 ) ) ;
#40 = APPROVAL ( #43, 'UNSPECIFIED' ) ;
#41 = AXIS2_PLACEMENT_3D ( 'NONE', #21, #114, #113 ) ;
#42 = PERSON_AND_ORGANIZATION ( #58, #106 ) ;
#43 = APPROVAL_STATUS ( 'not_yet_approved' ) ;
#44 = ORIENTED_EDGE ( 'NONE', *, *, #80, .F. ) ;
#45 = APPROVAL_PERSON_ORGANIZATION ( #149, #126, #55 ) ;
#46 = AXIS2_PLACEMENT_3D ( 'NONE', #195, #97, #130 ) ;
#47 = DIRECTION ( 'NONE',  ( -0.000000000000000000, -0.000000000000000000, -1.000000000000000000 ) ) ;
#48 = AXIS2_PLACEMENT_3D ( 'NONE', #51, #35, #67 ) ;
#49 = DIRECTION ( 'NONE',  ( -1.000000000000000000, 0.000000000000000000, 0.000000000000000000 ) ) ;
#50 = CARTESIAN_POINT ( 'NONE',  ( 12.69999999999999929, 1.555301434917138433E-15, 6.000000000000000000 ) ) ;
#51 = CARTESIAN_POINT ( 'NONE',  ( 0.000000000000000000, 0.000000000000000000, 0.000000000000000000 ) ) ;
#52 = CARTESIAN_POINT ( 'NONE',  ( -12.69999999999999929, 0.000000000000000000, 0.000000000000000000 ) ) ;
#53 = COORDINATED_UNIVERSAL_TIME_OFFSET ( 2, 0, .AHEAD. ) ;
#54 = APPLICATION_PROTOCOL_DEFINITION ( 'international standard', 'config_control_design', 1994, #111 ) ;
#55 = APPROVAL_ROLE ( '' ) ;
#56 = MECHANICAL_CONTEXT ( 'NONE', #111, 'mechanical' ) ;
#57 = DATE_AND_TIME ( #120, #164 ) ;
#58 = PERSON ( 'UNSPECIFIED', 'UNSPECIFIED', 'UNSPECIFIED', ('UNSPECIFIED'), ('UNSPECIFIED'), ('UNSPECIFIED') ) ;
#59 = EDGE_LOOP ( 'NONE', ( #139, #128, #76, #63 ) ) ;
#60 = EDGE_CURVE ( 'NONE', #91, #141, #65, .T. ) ;
#61 = AXIS2_PLACEMENT_3D ( 'NONE', #178, #47, #109 ) ;
#62 = ORIENTED_EDGE ( 'NONE', *, *, #12, .F. ) ;
#63 = ORIENTED_EDGE ( 'NONE', *, *, #60, .T. ) ;
#64 = DIRECTION ( 'NONE',  ( 0.000000000000000000, 0.000000000000000000, 1.000000000000000000 ) ) ;
#65 = CIRCLE ( 'NONE', #129, 12.69999999999999929 ) ;
#66 = DIRECTION ( 'NONE',  ( -0.000000000000000000, -0.000000000000000000, -1.000000000000000000 ) ) ;
#67 = DIRECTION ( 'NONE',  ( 1.000000000000000000, 0.000000000000000000, 0.000000000000000000 ) ) ;
#68 = EDGE_CURVE ( 'NONE', #1, #141, #177, .T. ) ;
#69 = DIRECTION ( 'NONE',  ( 0.000000000000000000, 0.000000000000000000, 1.000000000000000000 ) ) ;
#70 = FACE_OUTER_BOUND ( 'NONE', #59, .T. ) ;
#71 = DATE_TIME_ROLE ( 'creation_date' ) ;
#72 = DATE_AND_TIME ( #173, #4 ) ;
#73 = CIRCLE ( 'NONE', #19, 4000.000000000000000 ) ;
#74 = CC_DESIGN_PERSON_AND_ORGANIZATION_ASSIGNMENT ( #42, #198, ( #38 ) ) ;
#75 = VECTOR ( 'NONE', #82, 1000.000000000000000 ) ;
#76 = ORIENTED_EDGE ( 'NONE', *, *, #140, .T. ) ;
#77 = ORIENTED_EDGE ( 'NONE', *, *, #24, .F. ) ;
#78 = DIRECTION ( 'NONE',  ( 1.000000000000000000, 0.000000000000000000, -0.000000000000000000 ) ) ;
#79 =( NAMED_UNIT ( * ) PLANE_ANGLE_UNIT ( ) SI_UNIT ( $, .RADIAN. ) );
#80 = EDGE_CURVE ( 'NONE', #201, #124, #93, .T. ) ;
#81 = CARTESIAN_POINT ( 'NONE',  ( 7.358561035309071079E-13, 0.000000000000000000, 5.979838699190054285 ) ) ;
#82 = DIRECTION ( 'NONE',  ( -0.000000000000000000, -0.000000000000000000, -1.000000000000000000 ) ) ;
#83 =( NAMED_UNIT ( * ) SI_UNIT ( $, .STERADIAN. ) SOLID_ANGLE_UNIT ( ) );
#84 = COORDINATED_UNIVERSAL_TIME_OFFSET ( 2, 0, .AHEAD. ) ;
#85 = PERSON_AND_ORGANIZATION ( #58, #106 ) ;
#86 = PERSON_AND_ORGANIZATION_ROLE ( 'creator' ) ;
#87 = CC_DESIGN_PERSON_AND_ORGANIZATION_ASSIGNMENT ( #136, #9, ( #118 ) ) ;
#88 = CALENDAR_DATE ( 2021, 25, 2 ) ;
#89 = ORIENTED_EDGE ( 'NONE', *, *, #140, .F. ) ;
#90 = AXIS2_PLACEMENT_3D ( 'NONE', #176, #142, #49 ) ;
#91 = VERTEX_POINT ( 'NONE', #52 ) ;
#92 = CARTESIAN_POINT ( 'NONE',  ( 4.909267437014364077E-13, 0.000000000000000000, 4005.979838699190168 ) ) ;
#93 = CIRCLE ( 'NONE', #46, 4000.000000000000000 ) ;
#94 = CYLINDRICAL_SURFACE ( 'NONE', #90, 12.69999999999999929 ) ;
#95 = EDGE_CURVE ( 'NONE', #201, #1, #14, .T. ) ;
#96 = CC_DESIGN_APPROVAL ( #126, ( #118 ) ) ;
#97 = DIRECTION ( 'NONE',  ( 1.224646799147353207E-16, -1.000000000000000000, 0.000000000000000000 ) ) ;
#98 = FACE_OUTER_BOUND ( 'NONE', #189, .T. ) ;
#99 = APPROVAL_STATUS ( 'not_yet_approved' ) ;
#100 = AXIS2_PLACEMENT_3D ( 'NONE', #92, #160, #37 ) ;
#101 = CARTESIAN_POINT ( 'NONE',  ( 0.000000000000000000, 0.000000000000000000, 0.000000000000000000 ) ) ;
#102 = COORDINATED_UNIVERSAL_TIME_OFFSET ( 2, 0, .AHEAD. ) ;
#103 = APPROVAL_ROLE ( '' ) ;
#104 = CC_DESIGN_PERSON_AND_ORGANIZATION_ASSIGNMENT ( #119, #86, ( #134 ) ) ;
#105 = PRODUCT ( '010-1229E_UVFS_PCV_window', '010-1229E_UVFS_PCV_window', '', ( #56 ) ) ;
#106 = ORGANIZATION ( 'UNSPECIFIED', 'UNSPECIFIED', '' ) ;
#107 = EDGE_LOOP ( 'NONE', ( #15, #157, #123 ) ) ;
#108 = CC_DESIGN_PERSON_AND_ORGANIZATION_ASSIGNMENT ( #122, #26, ( #118 ) ) ;
#109 = DIRECTION ( 'NONE',  ( -1.000000000000000000, 0.000000000000000000, 0.000000000000000000 ) ) ;
#110 = UNCERTAINTY_MEASURE_WITH_UNIT (LENGTH_MEASURE( 1.000000000000000082E-05 ), #163, 'distance_accuracy_value', 'NONE');
#111 = APPLICATION_CONTEXT ( 'configuration controlled 3d designs of mechanical parts and assemblies' ) ;
#112 = CARTESIAN_POINT ( 'NONE',  ( -12.69999999997689066, 0.000000000000000000, 5.999999999999783284 ) ) ;
#113 = DIRECTION ( 'NONE',  ( 1.000000000000000000, 0.000000000000000000, 0.000000000000000000 ) ) ;
#114 = DIRECTION ( 'NONE',  ( -0.000000000000000000, -0.000000000000000000, -1.000000000000000000 ) ) ;
#115 = DIRECTION ( 'NONE',  ( 1.000000000000000000, 0.000000000000000000, 0.000000000000000000 ) ) ;
#116 = DATE_AND_TIME ( #10, #183 ) ;
#117 = APPROVAL_DATE_TIME ( #72, #146 ) ;
#118 = PRODUCT_DEFINITION_FORMATION_WITH_SPECIFIED_SOURCE ( 'ANY', '', #105, .NOT_KNOWN. ) ;
#119 = PERSON_AND_ORGANIZATION ( #58, #106 ) ;
#120 = CALENDAR_DATE ( 2021, 25, 2 ) ;
#121 = ADVANCED_FACE ( 'NONE', ( #192 ), #17, .F. ) ;
#122 = PERSON_AND_ORGANIZATION ( #58, #106 ) ;
#123 = ORIENTED_EDGE ( 'NONE', *, *, #158, .F. ) ;
#124 = VERTEX_POINT ( 'NONE', #81 ) ;
#125 = APPROVAL_PERSON_ORGANIZATION ( #85, #40, #174 ) ;
#126 = APPROVAL ( #13, 'UNSPECIFIED' ) ;
#127 = CC_DESIGN_APPROVAL ( #40, ( #38 ) ) ;
#128 = ORIENTED_EDGE ( 'NONE', *, *, #12, .T. ) ;
#129 = AXIS2_PLACEMENT_3D ( 'NONE', #145, #143, #193 ) ;
#130 = DIRECTION ( 'NONE',  ( 1.000000000000000000, 1.224646799147353207E-16, 0.000000000000000000 ) ) ;
#131 = DIRECTION ( 'NONE',  ( -0.000000000000000000, -0.000000000000000000, -1.000000000000000000 ) ) ;
#132 = CYLINDRICAL_SURFACE ( 'NONE', #61, 12.69999999999999929 ) ;
#133 = PERSON_AND_ORGANIZATION_ROLE ( 'design_owner' ) ;
#134 = PRODUCT_DEFINITION ( 'UNKNOWN', '', #118, #34 ) ;
#135 = CC_DESIGN_APPROVAL ( #146, ( #134 ) ) ;
#136 = PERSON_AND_ORGANIZATION ( #58, #106 ) ;
#137 = DIRECTION ( 'NONE',  ( 1.000000000000000000, 0.000000000000000000, 0.000000000000000000 ) ) ;
#138 = ORIENTED_EDGE ( 'NONE', *, *, #68, .T. ) ;
#139 = ORIENTED_EDGE ( 'NONE', *, *, #68, .F. ) ;
#140 = EDGE_CURVE ( 'NONE', #201, #91, #181, .T. ) ;
#141 = VERTEX_POINT ( 'NONE', #20 ) ;
#142 = DIRECTION ( 'NONE',  ( -0.000000000000000000, -0.000000000000000000, -1.000000000000000000 ) ) ;
#143 = DIRECTION ( 'NONE',  ( 0.000000000000000000, 0.000000000000000000, 1.000000000000000000 ) ) ;
#144 = APPROVAL_PERSON_ORGANIZATION ( #199, #146, #103 ) ;
#145 = CARTESIAN_POINT ( 'NONE',  ( 0.000000000000000000, 0.000000000000000000, 0.000000000000000000 ) ) ;
#146 = APPROVAL ( #99, 'UNSPECIFIED' ) ;
#147 = DIRECTION ( 'NONE',  ( 0.000000000000000000, 1.000000000000000000, -0.000000000000000000 ) ) ;
#148 = COORDINATED_UNIVERSAL_TIME_OFFSET ( 2, 0, .AHEAD. ) ;
#149 = PERSON_AND_ORGANIZATION ( #58, #106 ) ;
#150 = SHAPE_DEFINITION_REPRESENTATION ( #187, #165 ) ;
#151 = LOCAL_TIME ( 13, 57, 36.00000000000000000, #148 ) ;
#152 = APPLICATION_PROTOCOL_DEFINITION ( 'international standard', 'config_control_design', 1994, #170 ) ;
#153 = DATE_AND_TIME ( #88, #151 ) ;
#154 = AXIS2_PLACEMENT_3D ( 'NONE', #161, #197, #115 ) ;
#155 = CIRCLE ( 'NONE', #48, 12.69999999999999929 ) ;
#156 = EDGE_LOOP ( 'NONE', ( #44, #62, #30 ) ) ;
#157 = ORIENTED_EDGE ( 'NONE', *, *, #80, .T. ) ;
#158 = EDGE_CURVE ( 'NONE', #1, #124, #73, .T. ) ;
#159 = ORIENTED_EDGE ( 'NONE', *, *, #95, .T. ) ;
#160 = DIRECTION ( 'NONE',  ( 0.000000000000000000, -1.000000000000000000, -0.000000000000000000 ) ) ;
#161 = CARTESIAN_POINT ( 'NONE',  ( 4.909267437014364077E-13, 0.000000000000000000, 4005.979838699190168 ) ) ;
#162 = VECTOR ( 'NONE', #66, 1000.000000000000000 ) ;
#163 =( LENGTH_UNIT ( ) NAMED_UNIT ( * ) SI_UNIT ( .MILLI., .METRE. ) );
#164 = LOCAL_TIME ( 13, 57, 36.00000000000000000, #84 ) ;
#165 = ADVANCED_BREP_SHAPE_REPRESENTATION ( '010-1229E_UVFS_PCV_window', ( #27, #29 ), #180 ) ;
#166 = FACE_OUTER_BOUND ( 'NONE', #156, .T. ) ;
#167 = CC_DESIGN_DATE_AND_TIME_ASSIGNMENT ( #116, #71, ( #134 ) ) ;
#168 = PLANE ( 'NONE',  #191 ) ;
#169 = APPROVAL_DATE_TIME ( #57, #126 ) ;
#170 = APPLICATION_CONTEXT ( 'configuration controlled 3d designs of mechanical parts and assemblies' ) ;
#171 = DIRECTION ( 'NONE',  ( 0.000000000000000000, 0.000000000000000000, 1.000000000000000000 ) ) ;
#172 = CALENDAR_DATE ( 2021, 25, 2 ) ;
#173 = CALENDAR_DATE ( 2021, 25, 2 ) ;
#174 = APPROVAL_ROLE ( '' ) ;
#175 = ADVANCED_FACE ( 'NONE', ( #70 ), #132, .T. ) ;
#176 = CARTESIAN_POINT ( 'NONE',  ( 0.000000000000000000, 0.000000000000000000, 6.000000000000000000 ) ) ;
#177 = LINE ( 'NONE', #50, #162 ) ;
#178 = CARTESIAN_POINT ( 'NONE',  ( 0.000000000000000000, 0.000000000000000000, 6.000000000000000000 ) ) ;
#179 = CARTESIAN_POINT ( 'NONE',  ( -12.69999999999999929, 0.000000000000000000, 6.000000000000000000 ) ) ;
#180 =( GEOMETRIC_REPRESENTATION_CONTEXT ( 3 ) GLOBAL_UNCERTAINTY_ASSIGNED_CONTEXT ( ( #110 ) ) GLOBAL_UNIT_ASSIGNED_CONTEXT ( ( #163, #79, #83 ) ) REPRESENTATION_CONTEXT ( 'NONE', 'WORKASPACE' ) );
#181 = LINE ( 'NONE', #179, #75 ) ;
#182 = COORDINATED_UNIVERSAL_TIME_OFFSET ( 2, 0, .AHEAD. ) ;
#183 = LOCAL_TIME ( 13, 57, 36.00000000000000000, #182 ) ;
#184 = SECURITY_CLASSIFICATION_LEVEL ( 'unclassified' ) ;
#185 = DATE_TIME_ROLE ( 'classification_date' ) ;
#186 = ADVANCED_FACE ( 'NONE', ( #36 ), #94, .T. ) ;
#187 = PRODUCT_DEFINITION_SHAPE ( 'NONE', 'NONE',  #134 ) ;
#188 = EDGE_LOOP ( 'NONE', ( #159, #138, #28, #89 ) ) ;
#189 = EDGE_LOOP ( 'NONE', ( #32, #77 ) ) ;
#190 = CARTESIAN_POINT ( 'NONE',  ( 12.69999999997787299, 1.555301434915783761E-15, 5.999999999999783284 ) ) ;
#191 = AXIS2_PLACEMENT_3D ( 'NONE', #7, #64, #78 ) ;
#192 = FACE_OUTER_BOUND ( 'NONE', #107, .T. ) ;
#193 = DIRECTION ( 'NONE',  ( 1.000000000000000000, 0.000000000000000000, 0.000000000000000000 ) ) ;
#194 = CC_DESIGN_DATE_AND_TIME_ASSIGNMENT ( #23, #185, ( #38 ) ) ;
#195 = CARTESIAN_POINT ( 'NONE',  ( 4.909267437014364077E-13, 0.000000000000000000, 4005.979838699190168 ) ) ;
#196 = CIRCLE ( 'NONE', #33, 12.69999999997738271 ) ;
#197 = DIRECTION ( 'NONE',  ( 0.000000000000000000, -1.000000000000000000, -0.000000000000000000 ) ) ;
#198 = PERSON_AND_ORGANIZATION_ROLE ( 'classification_officer' ) ;
#199 = PERSON_AND_ORGANIZATION ( #58, #106 ) ;
#200 = CC_DESIGN_PERSON_AND_ORGANIZATION_ASSIGNMENT ( #22, #133, ( #105 ) ) ;
#201 = VERTEX_POINT ( 'NONE', #112 ) ;
ENDSEC;
END-ISO-10303-21;
