ISO-10303-21;
HEADER;
FILE_DESCRIPTION (( 'STEP AP203' ),
    '1' );
FILE_NAME ('010-1227E_UVFS_PCV_window.STEP',
    '2021-02-25T11:56:18',
    ( '' ),
    ( '' ),
    'SwSTEP 2.0',
    'SolidWorks 2019',
    '' );
FILE_SCHEMA (( 'CONFIG_CONTROL_DESIGN' ));
ENDSEC;

DATA;
#1 = CC_DESIGN_PERSON_AND_ORGANIZATION_ASSIGNMENT ( #59, #114, ( #151 ) ) ;
#2 = DIRECTION ( 'NONE',  ( -1.000000000000000000, 0.000000000000000000, 0.000000000000000000 ) ) ;
#3 = EDGE_CURVE ( 'NONE', #32, #18, #138, .T. ) ;
#4 = ORIENTED_EDGE ( 'NONE', *, *, #199, .T. ) ;
#5 = CARTESIAN_POINT ( 'NONE',  ( -12.69999999999999929, 0.000000000000000000, 6.000000000000000000 ) ) ;
#6 = FACE_OUTER_BOUND ( 'NONE', #187, .T. ) ;
#7 = PERSON ( 'UNSPECIFIED', 'UNSPECIFIED', 'UNSPECIFIED', ('UNSPECIFIED'), ('UNSPECIFIED'), ('UNSPECIFIED') ) ;
#8 = AXIS2_PLACEMENT_3D ( 'NONE', #104, #117, #101 ) ;
#9 = DIRECTION ( 'NONE',  ( -0.000000000000000000, -0.000000000000000000, -1.000000000000000000 ) ) ;
#10 = APPROVAL_PERSON_ORGANIZATION ( #195, #161, #41 ) ;
#11 = CALENDAR_DATE ( 2021, 25, 2 ) ;
#12 = DIRECTION ( 'NONE',  ( 0.000000000000000000, 0.000000000000000000, 1.000000000000000000 ) ) ;
#13 = DATE_AND_TIME ( #44, #168 ) ;
#14 = CALENDAR_DATE ( 2021, 25, 2 ) ;
#15 = ORGANIZATION ( 'UNSPECIFIED', 'UNSPECIFIED', '' ) ;
#16 = CC_DESIGN_PERSON_AND_ORGANIZATION_ASSIGNMENT ( #22, #100, ( #52 ) ) ;
#17 = DIRECTION ( 'NONE',  ( 0.000000000000000000, -1.000000000000000000, -0.000000000000000000 ) ) ;
#18 = VERTEX_POINT ( 'NONE', #144 ) ;
#19 = CYLINDRICAL_SURFACE ( 'NONE', #84, 12.69999999999999929 ) ;
#20 = CC_DESIGN_APPROVAL ( #141, ( #52 ) ) ;
#21 = APPROVAL_ROLE ( '' ) ;
#22 = PERSON_AND_ORGANIZATION ( #7, #15 ) ;
#23 = DIRECTION ( 'NONE',  ( 1.000000000000000000, 1.224646799147353207E-16, 0.000000000000000000 ) ) ;
#24 = APPROVAL_DATE_TIME ( #64, #161 ) ;
#25 = APPLICATION_CONTEXT ( 'configuration controlled 3d designs of mechanical parts and assemblies' ) ;
#26 = PERSON_AND_ORGANIZATION ( #7, #15 ) ;
#27 = APPROVAL ( #90, 'UNSPECIFIED' ) ;
#28 = SPHERICAL_SURFACE ( 'NONE', #133, 3000.000000000000000 ) ;
#29 = CIRCLE ( 'NONE', #55, 3000.000000000000000 ) ;
#30 = ADVANCED_FACE ( 'NONE', ( #6 ), #70, .F. ) ;
#31 = ORIENTED_EDGE ( 'NONE', *, *, #3, .T. ) ;
#32 = VERTEX_POINT ( 'NONE', #37 ) ;
#33 = VERTEX_POINT ( 'NONE', #192 ) ;
#34 = ORIENTED_EDGE ( 'NONE', *, *, #85, .T. ) ;
#35 = DIRECTION ( 'NONE',  ( -0.000000000000000000, -0.000000000000000000, -1.000000000000000000 ) ) ;
#36 = DIRECTION ( 'NONE',  ( 1.000000000000000000, 0.000000000000000000, 0.000000000000000000 ) ) ;
#37 = CARTESIAN_POINT ( 'NONE',  ( -12.70000000004695018, 0.000000000000000000, 5.999999999999783284 ) ) ;
#38 = APPLICATION_CONTEXT ( 'configuration controlled 3d designs of mechanical parts and assemblies' ) ;
#39 = AXIS2_PLACEMENT_3D ( 'NONE', #118, #134, #200 ) ;
#40 = PERSON_AND_ORGANIZATION_ROLE ( 'design_owner' ) ;
#41 = APPROVAL_ROLE ( '' ) ;
#42 = DIRECTION ( 'NONE',  ( 1.000000000000000000, 0.000000000000000000, 0.000000000000000000 ) ) ;
#43 =( NAMED_UNIT ( * ) SI_UNIT ( $, .STERADIAN. ) SOLID_ANGLE_UNIT ( ) );
#44 = CALENDAR_DATE ( 2021, 25, 2 ) ;
#45 = SHAPE_DEFINITION_REPRESENTATION ( #170, #130 ) ;
#46 = ADVANCED_FACE ( 'NONE', ( #152 ), #63, .T. ) ;
#47 = VECTOR ( 'NONE', #35, 1000.000000000000000 ) ;
#48 = ORIENTED_EDGE ( 'NONE', *, *, #107, .F. ) ;
#49 = VERTEX_POINT ( 'NONE', #186 ) ;
#50 = EDGE_LOOP ( 'NONE', ( #93, #82, #4 ) ) ;
#51 = CIRCLE ( 'NONE', #159, 3000.000000000000000 ) ;
#52 = PRODUCT_DEFINITION ( 'UNKNOWN', '', #151, #167 ) ;
#53 = EDGE_LOOP ( 'NONE', ( #48, #188 ) ) ;
#54 = DIRECTION ( 'NONE',  ( -0.000000000000000000, -0.000000000000000000, -1.000000000000000000 ) ) ;
#55 = AXIS2_PLACEMENT_3D ( 'NONE', #76, #148, #23 ) ;
#56 = PERSON_AND_ORGANIZATION ( #7, #15 ) ;
#57 = APPROVAL_PERSON_ORGANIZATION ( #56, #141, #21 ) ;
#58 = CC_DESIGN_PERSON_AND_ORGANIZATION_ASSIGNMENT ( #88, #61, ( #151 ) ) ;
#59 = PERSON_AND_ORGANIZATION ( #7, #15 ) ;
#60 = AXIS2_PLACEMENT_3D ( 'NONE', #89, #12, #42 ) ;
#61 = PERSON_AND_ORGANIZATION_ROLE ( 'creator' ) ;
#62 = DIRECTION ( 'NONE',  ( 1.000000000000000000, 0.000000000000000000, 0.000000000000000000 ) ) ;
#63 = CYLINDRICAL_SURFACE ( 'NONE', #162, 12.69999999999999929 ) ;
#64 = DATE_AND_TIME ( #14, #124 ) ;
#65 = PRODUCT ( '010-1227E_UVFS_PCV_window', '010-1227E_UVFS_PCV_window', '', ( #73 ) ) ;
#66 = ORIENTED_EDGE ( 'NONE', *, *, #3, .F. ) ;
#67 = CC_DESIGN_APPROVAL ( #161, ( #96 ) ) ;
#68 = ORIENTED_EDGE ( 'NONE', *, *, #115, .T. ) ;
#69 = PLANE ( 'NONE',  #99 ) ;
#70 = SPHERICAL_SURFACE ( 'NONE', #181, 3000.000000000000000 ) ;
#71 = AXIS2_PLACEMENT_3D ( 'NONE', #173, #145, #36 ) ;
#72 = ADVANCED_FACE ( 'NONE', ( #121 ), #28, .F. ) ;
#73 = MECHANICAL_CONTEXT ( 'NONE', #25, 'mechanical' ) ;
#74 = CC_DESIGN_DATE_AND_TIME_ASSIGNMENT ( #135, #197, ( #52 ) ) ;
#75 = DATE_AND_TIME ( #163, #78 ) ;
#76 = CARTESIAN_POINT ( 'NONE',  ( 3.694961003830599111E-13, 0.000000000000000000, 3005.973118212894406 ) ) ;
#77 = COORDINATED_UNIVERSAL_TIME_OFFSET ( 2, 0, .AHEAD. ) ;
#78 = LOCAL_TIME ( 13, 56, 18.00000000000000000, #77 ) ;
#79 = CIRCLE ( 'NONE', #8, 12.70000000004731788 ) ;
#80 = DIRECTION ( 'NONE',  ( -0.000000000000000000, -0.000000000000000000, -1.000000000000000000 ) ) ;
#81 = ORIENTED_EDGE ( 'NONE', *, *, #139, .F. ) ;
#82 = ORIENTED_EDGE ( 'NONE', *, *, #85, .F. ) ;
#83 = DIRECTION ( 'NONE',  ( 1.000000000000000000, 0.000000000000000000, -0.000000000000000000 ) ) ;
#84 = AXIS2_PLACEMENT_3D ( 'NONE', #189, #9, #97 ) ;
#85 = EDGE_CURVE ( 'NONE', #18, #32, #79, .T. ) ;
#86 = CARTESIAN_POINT ( 'NONE',  ( 3.694961003830599111E-13, 0.000000000000000000, 3005.973118212894406 ) ) ;
#87 = DATE_AND_TIME ( #160, #125 ) ;
#88 = PERSON_AND_ORGANIZATION ( #7, #15 ) ;
#89 = CARTESIAN_POINT ( 'NONE',  ( 0.000000000000000000, 0.000000000000000000, 0.000000000000000000 ) ) ;
#90 = APPROVAL_STATUS ( 'not_yet_approved' ) ;
#91 = CARTESIAN_POINT ( 'NONE',  ( 3.694961003830599111E-13, 0.000000000000000000, 3005.973118212894406 ) ) ;
#92 = EDGE_LOOP ( 'NONE', ( #31, #123, #68, #81 ) ) ;
#93 = ORIENTED_EDGE ( 'NONE', *, *, #102, .F. ) ;
#94 = ORIENTED_EDGE ( 'NONE', *, *, #102, .T. ) ;
#95 = FACE_OUTER_BOUND ( 'NONE', #53, .T. ) ;
#96 = SECURITY_CLASSIFICATION ( '', '', #184 ) ;
#97 = DIRECTION ( 'NONE',  ( -1.000000000000000000, 0.000000000000000000, 0.000000000000000000 ) ) ;
#98 = COORDINATED_UNIVERSAL_TIME_OFFSET ( 2, 0, .AHEAD. ) ;
#99 = AXIS2_PLACEMENT_3D ( 'NONE', #110, #157, #83 ) ;
#100 = PERSON_AND_ORGANIZATION_ROLE ( 'creator' ) ;
#101 = DIRECTION ( 'NONE',  ( 1.000000000000000000, 0.000000000000000000, 0.000000000000000000 ) ) ;
#102 = EDGE_CURVE ( 'NONE', #32, #49, #29, .T. ) ;
#103 = DATE_TIME_ROLE ( 'classification_date' ) ;
#104 = CARTESIAN_POINT ( 'NONE',  ( 3.694961003830599111E-13, 0.000000000000000000, 5.999999999999783284 ) ) ;
#105 =( GEOMETRIC_REPRESENTATION_CONTEXT ( 3 ) GLOBAL_UNCERTAINTY_ASSIGNED_CONTEXT ( ( #119 ) ) GLOBAL_UNIT_ASSIGNED_CONTEXT ( ( #193, #158, #43 ) ) REPRESENTATION_CONTEXT ( 'NONE', 'WORKASPACE' ) );
#106 = AXIS2_PLACEMENT_3D ( 'NONE', #132, #198, #62 ) ;
#107 = EDGE_CURVE ( 'NONE', #33, #155, #196, .T. ) ;
#108 = ORIENTED_EDGE ( 'NONE', *, *, #139, .T. ) ;
#109 = EDGE_LOOP ( 'NONE', ( #156, #34, #108, #140 ) ) ;
#110 = CARTESIAN_POINT ( 'NONE',  ( 0.000000000000000000, 0.000000000000000000, 0.000000000000000000 ) ) ;
#111 = DIRECTION ( 'NONE',  ( 0.000000000000000000, -1.000000000000000000, -0.000000000000000000 ) ) ;
#112 = APPROVAL_STATUS ( 'not_yet_approved' ) ;
#113 = CC_DESIGN_APPROVAL ( #27, ( #151 ) ) ;
#114 = PERSON_AND_ORGANIZATION_ROLE ( 'design_supplier' ) ;
#115 = EDGE_CURVE ( 'NONE', #155, #33, #191, .T. ) ;
#116 = PERSON_AND_ORGANIZATION ( #7, #15 ) ;
#117 = DIRECTION ( 'NONE',  ( -0.000000000000000000, -0.000000000000000000, -1.000000000000000000 ) ) ;
#118 = CARTESIAN_POINT ( 'NONE',  ( 0.000000000000000000, 0.000000000000000000, 0.000000000000000000 ) ) ;
#119 = UNCERTAINTY_MEASURE_WITH_UNIT (LENGTH_MEASURE( 1.000000000000000082E-05 ), #193, 'distance_accuracy_value', 'NONE');
#120 = CC_DESIGN_PERSON_AND_ORGANIZATION_ASSIGNMENT ( #129, #40, ( #65 ) ) ;
#121 = FACE_OUTER_BOUND ( 'NONE', #50, .T. ) ;
#122 = EDGE_CURVE ( 'NONE', #18, #155, #185, .T. ) ;
#123 = ORIENTED_EDGE ( 'NONE', *, *, #122, .T. ) ;
#124 = LOCAL_TIME ( 13, 56, 18.00000000000000000, #166 ) ;
#125 = LOCAL_TIME ( 13, 56, 18.00000000000000000, #98 ) ;
#126 = CARTESIAN_POINT ( 'NONE',  ( 12.69999999999999929, 1.555301434917138433E-15, 0.000000000000000000 ) ) ;
#127 = PRODUCT_RELATED_PRODUCT_CATEGORY ( 'detail', '', ( #65 ) ) ;
#128 = DIRECTION ( 'NONE',  ( 0.000000000000000000, 0.000000000000000000, 1.000000000000000000 ) ) ;
#129 = PERSON_AND_ORGANIZATION ( #7, #15 ) ;
#130 = ADVANCED_BREP_SHAPE_REPRESENTATION ( '010-1227E_UVFS_PCV_window', ( #150, #39 ), #105 ) ;
#131 = APPROVAL_DATE_TIME ( #75, #27 ) ;
#132 = CARTESIAN_POINT ( 'NONE',  ( 0.000000000000000000, 0.000000000000000000, 0.000000000000000000 ) ) ;
#133 = AXIS2_PLACEMENT_3D ( 'NONE', #91, #17, #137 ) ;
#134 = DIRECTION ( 'NONE',  ( 0.000000000000000000, 0.000000000000000000, 1.000000000000000000 ) ) ;
#135 = DATE_AND_TIME ( #11, #136 ) ;
#136 = LOCAL_TIME ( 13, 56, 18.00000000000000000, #165 ) ;
#137 = DIRECTION ( 'NONE',  ( 1.000000000000000000, 0.000000000000000000, 0.000000000000000000 ) ) ;
#138 = CIRCLE ( 'NONE', #71, 12.70000000004731788 ) ;
#139 = EDGE_CURVE ( 'NONE', #32, #33, #143, .T. ) ;
#140 = ORIENTED_EDGE ( 'NONE', *, *, #107, .T. ) ;
#141 = APPROVAL ( #112, 'UNSPECIFIED' ) ;
#142 = CC_DESIGN_DATE_AND_TIME_ASSIGNMENT ( #13, #103, ( #96 ) ) ;
#143 = LINE ( 'NONE', #5, #47 ) ;
#144 = CARTESIAN_POINT ( 'NONE',  ( 12.70000000004768914, 1.555301434922978764E-15, 5.999999999999783284 ) ) ;
#145 = DIRECTION ( 'NONE',  ( -0.000000000000000000, -0.000000000000000000, -1.000000000000000000 ) ) ;
#146 = APPROVAL_DATE_TIME ( #87, #141 ) ;
#147 = APPROVAL_ROLE ( '' ) ;
#148 = DIRECTION ( 'NONE',  ( 1.224646799147353207E-16, -1.000000000000000000, 0.000000000000000000 ) ) ;
#149 = COORDINATED_UNIVERSAL_TIME_OFFSET ( 2, 0, .AHEAD. ) ;
#150 = MANIFOLD_SOLID_BREP ( 'Cut-Revolve1', #153 ) ;
#151 = PRODUCT_DEFINITION_FORMATION_WITH_SPECIFIED_SOURCE ( 'ANY', '', #65, .NOT_KNOWN. ) ;
#152 = FACE_OUTER_BOUND ( 'NONE', #109, .T. ) ;
#153 = CLOSED_SHELL ( 'NONE', ( #30, #176, #46, #154, #72 ) ) ;
#154 = ADVANCED_FACE ( 'NONE', ( #95 ), #69, .F. ) ;
#155 = VERTEX_POINT ( 'NONE', #126 ) ;
#156 = ORIENTED_EDGE ( 'NONE', *, *, #122, .F. ) ;
#157 = DIRECTION ( 'NONE',  ( 0.000000000000000000, 0.000000000000000000, 1.000000000000000000 ) ) ;
#158 =( NAMED_UNIT ( * ) PLANE_ANGLE_UNIT ( ) SI_UNIT ( $, .RADIAN. ) );
#159 = AXIS2_PLACEMENT_3D ( 'NONE', #86, #177, #128 ) ;
#160 = CALENDAR_DATE ( 2021, 25, 2 ) ;
#161 = APPROVAL ( #182, 'UNSPECIFIED' ) ;
#162 = AXIS2_PLACEMENT_3D ( 'NONE', #169, #80, #2 ) ;
#163 = CALENDAR_DATE ( 2021, 25, 2 ) ;
#164 = CARTESIAN_POINT ( 'NONE',  ( 12.69999999999999929, 1.555301434917138433E-15, 6.000000000000000000 ) ) ;
#165 = COORDINATED_UNIVERSAL_TIME_OFFSET ( 2, 0, .AHEAD. ) ;
#166 = COORDINATED_UNIVERSAL_TIME_OFFSET ( 2, 0, .AHEAD. ) ;
#167 = DESIGN_CONTEXT ( 'detailed design', #38, 'design' ) ;
#168 = LOCAL_TIME ( 13, 56, 18.00000000000000000, #149 ) ;
#169 = CARTESIAN_POINT ( 'NONE',  ( 0.000000000000000000, 0.000000000000000000, 6.000000000000000000 ) ) ;
#170 = PRODUCT_DEFINITION_SHAPE ( 'NONE', 'NONE',  #52 ) ;
#171 = VECTOR ( 'NONE', #54, 1000.000000000000000 ) ;
#172 = ORIENTED_EDGE ( 'NONE', *, *, #199, .F. ) ;
#173 = CARTESIAN_POINT ( 'NONE',  ( 3.694961003830599111E-13, 0.000000000000000000, 5.999999999999783284 ) ) ;
#174 = FACE_OUTER_BOUND ( 'NONE', #92, .T. ) ;
#175 = DIRECTION ( 'NONE',  ( 1.000000000000000000, 0.000000000000000000, 0.000000000000000000 ) ) ;
#176 = ADVANCED_FACE ( 'NONE', ( #174 ), #19, .T. ) ;
#177 = DIRECTION ( 'NONE',  ( 0.000000000000000000, 1.000000000000000000, -0.000000000000000000 ) ) ;
#178 = CC_DESIGN_PERSON_AND_ORGANIZATION_ASSIGNMENT ( #116, #201, ( #96 ) ) ;
#179 = CC_DESIGN_SECURITY_CLASSIFICATION ( #96, ( #151 ) ) ;
#180 = APPROVAL_PERSON_ORGANIZATION ( #26, #27, #147 ) ;
#181 = AXIS2_PLACEMENT_3D ( 'NONE', #190, #111, #175 ) ;
#182 = APPROVAL_STATUS ( 'not_yet_approved' ) ;
#183 = APPLICATION_PROTOCOL_DEFINITION ( 'international standard', 'config_control_design', 1994, #25 ) ;
#184 = SECURITY_CLASSIFICATION_LEVEL ( 'unclassified' ) ;
#185 = LINE ( 'NONE', #164, #171 ) ;
#186 = CARTESIAN_POINT ( 'NONE',  ( 5.531931202551628353E-13, 0.000000000000000000, 5.973118212894590329 ) ) ;
#187 = EDGE_LOOP ( 'NONE', ( #66, #94, #172 ) ) ;
#188 = ORIENTED_EDGE ( 'NONE', *, *, #115, .F. ) ;
#189 = CARTESIAN_POINT ( 'NONE',  ( 0.000000000000000000, 0.000000000000000000, 6.000000000000000000 ) ) ;
#190 = CARTESIAN_POINT ( 'NONE',  ( 3.694961003830599111E-13, 0.000000000000000000, 3005.973118212894406 ) ) ;
#191 = CIRCLE ( 'NONE', #106, 12.69999999999999929 ) ;
#192 = CARTESIAN_POINT ( 'NONE',  ( -12.69999999999999929, 0.000000000000000000, 0.000000000000000000 ) ) ;
#193 =( LENGTH_UNIT ( ) NAMED_UNIT ( * ) SI_UNIT ( .MILLI., .METRE. ) );
#194 = APPLICATION_PROTOCOL_DEFINITION ( 'international standard', 'config_control_design', 1994, #38 ) ;
#195 = PERSON_AND_ORGANIZATION ( #7, #15 ) ;
#196 = CIRCLE ( 'NONE', #60, 12.69999999999999929 ) ;
#197 = DATE_TIME_ROLE ( 'creation_date' ) ;
#198 = DIRECTION ( 'NONE',  ( 0.000000000000000000, 0.000000000000000000, 1.000000000000000000 ) ) ;
#199 = EDGE_CURVE ( 'NONE', #18, #49, #51, .T. ) ;
#200 = DIRECTION ( 'NONE',  ( 1.000000000000000000, 0.000000000000000000, 0.000000000000000000 ) ) ;
#201 = PERSON_AND_ORGANIZATION_ROLE ( 'classification_officer' ) ;
ENDSEC;
END-ISO-10303-21;
