ISO-10303-21;
HEADER;
FILE_DESCRIPTION (( 'STEP AP203' ),
    '1' );
FILE_NAME ('010-1226E_UVFS_PCV_window.STEP',
    '2021-02-25T11:55:15',
    ( '' ),
    ( '' ),
    'SwSTEP 2.0',
    'SolidWorks 2019',
    '' );
FILE_SCHEMA (( 'CONFIG_CONTROL_DESIGN' ));
ENDSEC;

DATA;
#1 = APPROVAL_ROLE ( '' ) ;
#2 = DIRECTION ( 'NONE',  ( 0.000000000000000000, 0.000000000000000000, 1.000000000000000000 ) ) ;
#3 = AXIS2_PLACEMENT_3D ( 'NONE', #26, #105, #45 ) ;
#4 = PRODUCT_DEFINITION_FORMATION_WITH_SPECIFIED_SOURCE ( 'ANY', '', #121, .NOT_KNOWN. ) ;
#5 = PLANE ( 'NONE',  #148 ) ;
#6 = DIRECTION ( 'NONE',  ( 0.000000000000000000, 0.000000000000000000, 1.000000000000000000 ) ) ;
#7 = ORIENTED_EDGE ( 'NONE', *, *, #11, .F. ) ;
#8 = ORIENTED_EDGE ( 'NONE', *, *, #14, .F. ) ;
#9 = CARTESIAN_POINT ( 'NONE',  ( 12.70000000001265583, 1.555301434918688544E-15, 5.999999999999783284 ) ) ;
#10 = CYLINDRICAL_SURFACE ( 'NONE', #178, 12.69999999999999929 ) ;
#11 = EDGE_CURVE ( 'NONE', #116, #59, #44, .T. ) ;
#12 = APPROVAL_STATUS ( 'not_yet_approved' ) ;
#13 = PERSON_AND_ORGANIZATION ( #36, #133 ) ;
#14 = EDGE_CURVE ( 'NONE', #59, #183, #37, .T. ) ;
#15 = AXIS2_PLACEMENT_3D ( 'NONE', #65, #2, #63 ) ;
#16 = APPROVAL_STATUS ( 'not_yet_approved' ) ;
#17 = APPROVAL ( #16, 'UNSPECIFIED' ) ;
#18 = PERSON_AND_ORGANIZATION ( #36, #133 ) ;
#19 = DIRECTION ( 'NONE',  ( 1.000000000000000000, 0.000000000000000000, -0.000000000000000000 ) ) ;
#20 = DIRECTION ( 'NONE',  ( -0.000000000000000000, -0.000000000000000000, -1.000000000000000000 ) ) ;
#21 = DIRECTION ( 'NONE',  ( -0.000000000000000000, -0.000000000000000000, -1.000000000000000000 ) ) ;
#22 = CARTESIAN_POINT ( 'NONE',  ( 0.000000000000000000, 0.000000000000000000, 0.000000000000000000 ) ) ;
#23 = DIRECTION ( 'NONE',  ( 1.000000000000000000, 0.000000000000000000, 0.000000000000000000 ) ) ;
#24 = EDGE_CURVE ( 'NONE', #183, #61, #25, .T. ) ;
#25 = CIRCLE ( 'NONE', #30, 12.69999999999999929 ) ;
#26 = CARTESIAN_POINT ( 'NONE',  ( 3.070460552478948557E-13, 0.000000000000000000, 2505.967741791881508 ) ) ;
#27 = CARTESIAN_POINT ( 'NONE',  ( 3.070460552478948557E-13, 0.000000000000000000, 2505.967741791881508 ) ) ;
#28 = LOCAL_TIME ( 13, 55, 15.00000000000000000, #151 ) ;
#29 = DIRECTION ( 'NONE',  ( -1.000000000000000000, 0.000000000000000000, 0.000000000000000000 ) ) ;
#30 = AXIS2_PLACEMENT_3D ( 'NONE', #41, #137, #23 ) ;
#31 = PERSON_AND_ORGANIZATION_ROLE ( 'creator' ) ;
#32 = SECURITY_CLASSIFICATION_LEVEL ( 'unclassified' ) ;
#33 = LOCAL_TIME ( 13, 55, 15.00000000000000000, #193 ) ;
#34 = CIRCLE ( 'NONE', #130, 12.70000000001234852 ) ;
#35 = DATE_AND_TIME ( #52, #128 ) ;
#36 = PERSON ( 'UNSPECIFIED', 'UNSPECIFIED', 'UNSPECIFIED', ('UNSPECIFIED'), ('UNSPECIFIED'), ('UNSPECIFIED') ) ;
#37 = LINE ( 'NONE', #170, #165 ) ;
#38 = CC_DESIGN_DATE_AND_TIME_ASSIGNMENT ( #95, #49, ( #53 ) ) ;
#39 = ORIENTED_EDGE ( 'NONE', *, *, #81, .T. ) ;
#40 = VERTEX_POINT ( 'NONE', #136 ) ;
#41 = CARTESIAN_POINT ( 'NONE',  ( 0.000000000000000000, 0.000000000000000000, 0.000000000000000000 ) ) ;
#42 = ADVANCED_FACE ( 'NONE', ( #86 ), #5, .F. ) ;
#43 = DIRECTION ( 'NONE',  ( 1.000000000000000000, 0.000000000000000000, 0.000000000000000000 ) ) ;
#44 = CIRCLE ( 'NONE', #92, 12.70000000001234852 ) ;
#45 = DIRECTION ( 'NONE',  ( 1.000000000000000000, 0.000000000000000000, 0.000000000000000000 ) ) ;
#46 = PERSON_AND_ORGANIZATION ( #36, #133 ) ;
#47 = APPROVAL_PERSON_ORGANIZATION ( #150, #17, #67 ) ;
#48 = APPROVAL_DATE_TIME ( #191, #152 ) ;
#49 = DATE_TIME_ROLE ( 'creation_date' ) ;
#50 = EDGE_CURVE ( 'NONE', #61, #183, #138, .T. ) ;
#51 = CC_DESIGN_APPROVAL ( #17, ( #169 ) ) ;
#52 = CALENDAR_DATE ( 2021, 25, 2 ) ;
#53 = PRODUCT_DEFINITION ( 'UNKNOWN', '', #4, #89 ) ;
#54 = PERSON_AND_ORGANIZATION ( #36, #133 ) ;
#55 = DATE_TIME_ROLE ( 'classification_date' ) ;
#56 = CIRCLE ( 'NONE', #124, 2500.000000000000000 ) ;
#57 = CARTESIAN_POINT ( 'NONE',  ( 0.000000000000000000, 0.000000000000000000, 0.000000000000000000 ) ) ;
#58 = APPLICATION_CONTEXT ( 'configuration controlled 3d designs of mechanical parts and assemblies' ) ;
#59 = VERTEX_POINT ( 'NONE', #99 ) ;
#60 = CARTESIAN_POINT ( 'NONE',  ( 3.070460552478948557E-13, 0.000000000000000000, 2505.967741791881508 ) ) ;
#61 = VERTEX_POINT ( 'NONE', #102 ) ;
#62 =( LENGTH_UNIT ( ) NAMED_UNIT ( * ) SI_UNIT ( .MILLI., .METRE. ) );
#63 = DIRECTION ( 'NONE',  ( 1.000000000000000000, 0.000000000000000000, 0.000000000000000000 ) ) ;
#64 = VECTOR ( 'NONE', #73, 1000.000000000000000 ) ;
#65 = CARTESIAN_POINT ( 'NONE',  ( 0.000000000000000000, 0.000000000000000000, 0.000000000000000000 ) ) ;
#66 = COORDINATED_UNIVERSAL_TIME_OFFSET ( 2, 0, .AHEAD. ) ;
#67 = APPROVAL_ROLE ( '' ) ;
#68 = CC_DESIGN_APPROVAL ( #152, ( #53 ) ) ;
#69 = DIRECTION ( 'NONE',  ( 1.000000000000000000, 0.000000000000000000, 0.000000000000000000 ) ) ;
#70 = CARTESIAN_POINT ( 'NONE',  ( 3.070460552478948557E-13, 0.000000000000000000, 5.999999999999783284 ) ) ;
#71 = ORIENTED_EDGE ( 'NONE', *, *, #11, .T. ) ;
#72 = CC_DESIGN_DATE_AND_TIME_ASSIGNMENT ( #35, #55, ( #169 ) ) ;
#73 = DIRECTION ( 'NONE',  ( -0.000000000000000000, -0.000000000000000000, -1.000000000000000000 ) ) ;
#74 = EDGE_CURVE ( 'NONE', #116, #40, #56, .T. ) ;
#75 = CARTESIAN_POINT ( 'NONE',  ( 0.000000000000000000, 0.000000000000000000, 6.000000000000000000 ) ) ;
#76 = SPHERICAL_SURFACE ( 'NONE', #119, 2500.000000000000000 ) ;
#77 = DIRECTION ( 'NONE',  ( -0.000000000000000000, -0.000000000000000000, -1.000000000000000000 ) ) ;
#78 = DIRECTION ( 'NONE',  ( 0.000000000000000000, -1.000000000000000000, -0.000000000000000000 ) ) ;
#79 = AXIS2_PLACEMENT_3D ( 'NONE', #57, #199, #69 ) ;
#80 = PERSON_AND_ORGANIZATION_ROLE ( 'design_supplier' ) ;
#81 = EDGE_CURVE ( 'NONE', #59, #116, #34, .T. ) ;
#82 = CC_DESIGN_SECURITY_CLASSIFICATION ( #169, ( #4 ) ) ;
#83 = CALENDAR_DATE ( 2021, 25, 2 ) ;
#84 = PERSON_AND_ORGANIZATION_ROLE ( 'creator' ) ;
#85 = DIRECTION ( 'NONE',  ( -0.000000000000000000, -0.000000000000000000, -1.000000000000000000 ) ) ;
#86 = FACE_OUTER_BOUND ( 'NONE', #135, .T. ) ;
#87 = EDGE_CURVE ( 'NONE', #116, #61, #90, .T. ) ;
#88 = ORIENTED_EDGE ( 'NONE', *, *, #24, .T. ) ;
#89 = DESIGN_CONTEXT ( 'detailed design', #111, 'design' ) ;
#90 = LINE ( 'NONE', #158, #64 ) ;
#91 = ORIENTED_EDGE ( 'NONE', *, *, #50, .F. ) ;
#92 = AXIS2_PLACEMENT_3D ( 'NONE', #197, #85, #43 ) ;
#93 =( NAMED_UNIT ( * ) PLANE_ANGLE_UNIT ( ) SI_UNIT ( $, .RADIAN. ) );
#94 = PERSON_AND_ORGANIZATION ( #36, #133 ) ;
#95 = DATE_AND_TIME ( #164, #33 ) ;
#96 = APPROVAL_PERSON_ORGANIZATION ( #94, #152, #1 ) ;
#97 = EDGE_CURVE ( 'NONE', #59, #40, #162, .T. ) ;
#98 = APPROVAL_ROLE ( '' ) ;
#99 = CARTESIAN_POINT ( 'NONE',  ( -12.70000000001203944, 0.000000000000000000, 5.999999999999783284 ) ) ;
#100 = EDGE_LOOP ( 'NONE', ( #157, #101, #154 ) ) ;
#101 = ORIENTED_EDGE ( 'NONE', *, *, #97, .T. ) ;
#102 = CARTESIAN_POINT ( 'NONE',  ( 12.69999999999999929, 1.555301434917138433E-15, 0.000000000000000000 ) ) ;
#103 = CARTESIAN_POINT ( 'NONE',  ( 3.070460552478948557E-13, 0.000000000000000000, 2505.967741791881508 ) ) ;
#104 = LOCAL_TIME ( 13, 55, 15.00000000000000000, #66 ) ;
#105 = DIRECTION ( 'NONE',  ( 0.000000000000000000, -1.000000000000000000, -0.000000000000000000 ) ) ;
#106 = CARTESIAN_POINT ( 'NONE',  ( 0.000000000000000000, 0.000000000000000000, 6.000000000000000000 ) ) ;
#107 = MANIFOLD_SOLID_BREP ( 'Cut-Revolve1', #182 ) ;
#108 = CC_DESIGN_PERSON_AND_ORGANIZATION_ASSIGNMENT ( #54, #196, ( #169 ) ) ;
#109 = FACE_OUTER_BOUND ( 'NONE', #139, .T. ) ;
#110 = APPLICATION_PROTOCOL_DEFINITION ( 'international standard', 'config_control_design', 1994, #111 ) ;
#111 = APPLICATION_CONTEXT ( 'configuration controlled 3d designs of mechanical parts and assemblies' ) ;
#112 = APPROVAL_DATE_TIME ( #113, #149 ) ;
#113 = DATE_AND_TIME ( #127, #28 ) ;
#114 = CC_DESIGN_PERSON_AND_ORGANIZATION_ASSIGNMENT ( #147, #31, ( #53 ) ) ;
#115 = EDGE_LOOP ( 'NONE', ( #201, #7, #189 ) ) ;
#116 = VERTEX_POINT ( 'NONE', #9 ) ;
#117 = CC_DESIGN_APPROVAL ( #149, ( #4 ) ) ;
#118 = ORIENTED_EDGE ( 'NONE', *, *, #87, .T. ) ;
#119 = AXIS2_PLACEMENT_3D ( 'NONE', #27, #78, #163 ) ;
#120 = DIRECTION ( 'NONE',  ( 0.000000000000000000, 1.000000000000000000, -0.000000000000000000 ) ) ;
#121 = PRODUCT ( '010-1226E_UVFS_PCV_window', '010-1226E_UVFS_PCV_window', '', ( #145 ) ) ;
#122 = ORIENTED_EDGE ( 'NONE', *, *, #14, .T. ) ;
#123 = SPHERICAL_SURFACE ( 'NONE', #3, 2500.000000000000000 ) ;
#124 = AXIS2_PLACEMENT_3D ( 'NONE', #60, #120, #156 ) ;
#125 = ADVANCED_FACE ( 'NONE', ( #140 ), #144, .T. ) ;
#126 = FACE_OUTER_BOUND ( 'NONE', #100, .T. ) ;
#127 = CALENDAR_DATE ( 2021, 25, 2 ) ;
#128 = LOCAL_TIME ( 13, 55, 15.00000000000000000, #129 ) ;
#129 = COORDINATED_UNIVERSAL_TIME_OFFSET ( 2, 0, .AHEAD. ) ;
#130 = AXIS2_PLACEMENT_3D ( 'NONE', #70, #21, #172 ) ;
#131 = APPROVAL_DATE_TIME ( #132, #17 ) ;
#132 = DATE_AND_TIME ( #83, #185 ) ;
#133 = ORGANIZATION ( 'UNSPECIFIED', 'UNSPECIFIED', '' ) ;
#134 = PRODUCT_RELATED_PRODUCT_CATEGORY ( 'detail', '', ( #121 ) ) ;
#135 = EDGE_LOOP ( 'NONE', ( #168, #91 ) ) ;
#136 = CARTESIAN_POINT ( 'NONE',  ( 4.601269051413139424E-13, 0.000000000000000000, 5.967741791881309155 ) ) ;
#137 = DIRECTION ( 'NONE',  ( 0.000000000000000000, 0.000000000000000000, 1.000000000000000000 ) ) ;
#138 = CIRCLE ( 'NONE', #79, 12.69999999999999929 ) ;
#139 = EDGE_LOOP ( 'NONE', ( #184, #71, #122, #88 ) ) ;
#140 = FACE_OUTER_BOUND ( 'NONE', #186, .T. ) ;
#141 = ADVANCED_BREP_SHAPE_REPRESENTATION ( '010-1226E_UVFS_PCV_window', ( #107, #15 ), #155 ) ;
#142 = APPLICATION_PROTOCOL_DEFINITION ( 'international standard', 'config_control_design', 1994, #58 ) ;
#143 = CC_DESIGN_PERSON_AND_ORGANIZATION_ASSIGNMENT ( #46, #176, ( #121 ) ) ;
#144 = CYLINDRICAL_SURFACE ( 'NONE', #153, 12.69999999999999929 ) ;
#145 = MECHANICAL_CONTEXT ( 'NONE', #58, 'mechanical' ) ;
#146 = DIRECTION ( 'NONE',  ( -0.000000000000000000, -0.000000000000000000, -1.000000000000000000 ) ) ;
#147 = PERSON_AND_ORGANIZATION ( #36, #133 ) ;
#148 = AXIS2_PLACEMENT_3D ( 'NONE', #22, #6, #19 ) ;
#149 = APPROVAL ( #194, 'UNSPECIFIED' ) ;
#150 = PERSON_AND_ORGANIZATION ( #36, #133 ) ;
#151 = COORDINATED_UNIVERSAL_TIME_OFFSET ( 2, 0, .AHEAD. ) ;
#152 = APPROVAL ( #12, 'UNSPECIFIED' ) ;
#153 = AXIS2_PLACEMENT_3D ( 'NONE', #106, #146, #29 ) ;
#154 = ORIENTED_EDGE ( 'NONE', *, *, #74, .F. ) ;
#155 =( GEOMETRIC_REPRESENTATION_CONTEXT ( 3 ) GLOBAL_UNCERTAINTY_ASSIGNED_CONTEXT ( ( #171 ) ) GLOBAL_UNIT_ASSIGNED_CONTEXT ( ( #62, #93, #160 ) ) REPRESENTATION_CONTEXT ( 'NONE', 'WORKASPACE' ) );
#156 = DIRECTION ( 'NONE',  ( 0.000000000000000000, 0.000000000000000000, 1.000000000000000000 ) ) ;
#157 = ORIENTED_EDGE ( 'NONE', *, *, #81, .F. ) ;
#158 = CARTESIAN_POINT ( 'NONE',  ( 12.69999999999999929, 1.555301434917138433E-15, 6.000000000000000000 ) ) ;
#159 = DIRECTION ( 'NONE',  ( 1.224646799147353207E-16, -1.000000000000000000, 0.000000000000000000 ) ) ;
#160 =( NAMED_UNIT ( * ) SI_UNIT ( $, .STERADIAN. ) SOLID_ANGLE_UNIT ( ) );
#161 = ADVANCED_FACE ( 'NONE', ( #126 ), #123, .F. ) ;
#162 = CIRCLE ( 'NONE', #188, 2500.000000000000000 ) ;
#163 = DIRECTION ( 'NONE',  ( 1.000000000000000000, 0.000000000000000000, 0.000000000000000000 ) ) ;
#164 = CALENDAR_DATE ( 2021, 25, 2 ) ;
#165 = VECTOR ( 'NONE', #20, 1000.000000000000000 ) ;
#166 = SHAPE_DEFINITION_REPRESENTATION ( #200, #141 ) ;
#167 = COORDINATED_UNIVERSAL_TIME_OFFSET ( 2, 0, .AHEAD. ) ;
#168 = ORIENTED_EDGE ( 'NONE', *, *, #24, .F. ) ;
#169 = SECURITY_CLASSIFICATION ( '', '', #32 ) ;
#170 = CARTESIAN_POINT ( 'NONE',  ( -12.69999999999999929, 0.000000000000000000, 6.000000000000000000 ) ) ;
#171 = UNCERTAINTY_MEASURE_WITH_UNIT (LENGTH_MEASURE( 1.000000000000000082E-05 ), #62, 'distance_accuracy_value', 'NONE');
#172 = DIRECTION ( 'NONE',  ( 1.000000000000000000, 0.000000000000000000, 0.000000000000000000 ) ) ;
#173 = DIRECTION ( 'NONE',  ( 1.000000000000000000, 1.224646799147353207E-16, 0.000000000000000000 ) ) ;
#174 = ADVANCED_FACE ( 'NONE', ( #109 ), #10, .T. ) ;
#175 = DIRECTION ( 'NONE',  ( -1.000000000000000000, 0.000000000000000000, 0.000000000000000000 ) ) ;
#176 = PERSON_AND_ORGANIZATION_ROLE ( 'design_owner' ) ;
#177 = CALENDAR_DATE ( 2021, 25, 2 ) ;
#178 = AXIS2_PLACEMENT_3D ( 'NONE', #75, #77, #175 ) ;
#179 = CARTESIAN_POINT ( 'NONE',  ( -12.69999999999999929, 0.000000000000000000, 0.000000000000000000 ) ) ;
#180 = CC_DESIGN_PERSON_AND_ORGANIZATION_ASSIGNMENT ( #18, #84, ( #4 ) ) ;
#181 = PERSON_AND_ORGANIZATION ( #36, #133 ) ;
#182 = CLOSED_SHELL ( 'NONE', ( #161, #125, #174, #42, #187 ) ) ;
#183 = VERTEX_POINT ( 'NONE', #179 ) ;
#184 = ORIENTED_EDGE ( 'NONE', *, *, #87, .F. ) ;
#185 = LOCAL_TIME ( 13, 55, 15.00000000000000000, #167 ) ;
#186 = EDGE_LOOP ( 'NONE', ( #39, #118, #198, #8 ) ) ;
#187 = ADVANCED_FACE ( 'NONE', ( #190 ), #76, .F. ) ;
#188 = AXIS2_PLACEMENT_3D ( 'NONE', #103, #159, #173 ) ;
#189 = ORIENTED_EDGE ( 'NONE', *, *, #74, .T. ) ;
#190 = FACE_OUTER_BOUND ( 'NONE', #115, .T. ) ;
#191 = DATE_AND_TIME ( #177, #104 ) ;
#192 = CC_DESIGN_PERSON_AND_ORGANIZATION_ASSIGNMENT ( #181, #80, ( #4 ) ) ;
#193 = COORDINATED_UNIVERSAL_TIME_OFFSET ( 2, 0, .AHEAD. ) ;
#194 = APPROVAL_STATUS ( 'not_yet_approved' ) ;
#195 = APPROVAL_PERSON_ORGANIZATION ( #13, #149, #98 ) ;
#196 = PERSON_AND_ORGANIZATION_ROLE ( 'classification_officer' ) ;
#197 = CARTESIAN_POINT ( 'NONE',  ( 3.070460552478948557E-13, 0.000000000000000000, 5.999999999999783284 ) ) ;
#198 = ORIENTED_EDGE ( 'NONE', *, *, #50, .T. ) ;
#199 = DIRECTION ( 'NONE',  ( 0.000000000000000000, 0.000000000000000000, 1.000000000000000000 ) ) ;
#200 = PRODUCT_DEFINITION_SHAPE ( 'NONE', 'NONE',  #53 ) ;
#201 = ORIENTED_EDGE ( 'NONE', *, *, #97, .F. ) ;
ENDSEC;
END-ISO-10303-21;
