ISO-10303-21;
HEADER;
FILE_DESCRIPTION (( 'STEP AP203' ),
    '1' );
FILE_NAME ('010-1225E_UVFS_PCV_window.STEP',
    '2021-02-25T11:54:47',
    ( '' ),
    ( '' ),
    'SwSTEP 2.0',
    'SolidWorks 2019',
    '' );
FILE_SCHEMA (( 'CONFIG_CONTROL_DESIGN' ));
ENDSEC;

DATA;
#1 = EDGE_CURVE ( 'NONE', #189, #90, #95, .T. ) ;
#2 = CARTESIAN_POINT ( 'NONE',  ( 2.463307335887066074E-13, 0.000000000000000000, 6.000000000000005329 ) ) ;
#3 = LOCAL_TIME ( 13, 54, 47.00000000000000000, #26 ) ;
#4 = ORIENTED_EDGE ( 'NONE', *, *, #56, .T. ) ;
#5 = APPROVAL ( #120, 'UNSPECIFIED' ) ;
#6 = APPROVAL_STATUS ( 'not_yet_approved' ) ;
#7 = APPROVAL_ROLE ( '' ) ;
#8 = DIRECTION ( 'NONE',  ( 1.000000000000000000, 0.000000000000000000, 0.000000000000000000 ) ) ;
#9 = FACE_OUTER_BOUND ( 'NONE', #138, .T. ) ;
#10 = PERSON_AND_ORGANIZATION ( #178, #102 ) ;
#11 = CARTESIAN_POINT ( 'NONE',  ( 3.687954135034419575E-13, 0.000000000000000000, 5.959677093515747259 ) ) ;
#12 = PERSON_AND_ORGANIZATION ( #178, #102 ) ;
#13 = DIRECTION ( 'NONE',  ( -0.000000000000000000, -0.000000000000000000, -1.000000000000000000 ) ) ;
#14 = VERTEX_POINT ( 'NONE', #37 ) ;
#15 = CIRCLE ( 'NONE', #139, 2000.000000000000000 ) ;
#16 = CIRCLE ( 'NONE', #143, 12.70000000001234852 ) ;
#17 = CARTESIAN_POINT ( 'NONE',  ( 0.000000000000000000, 0.000000000000000000, 0.000000000000000000 ) ) ;
#18 = ORIENTED_EDGE ( 'NONE', *, *, #31, .F. ) ;
#19 =( GEOMETRIC_REPRESENTATION_CONTEXT ( 3 ) GLOBAL_UNCERTAINTY_ASSIGNED_CONTEXT ( ( #39 ) ) GLOBAL_UNIT_ASSIGNED_CONTEXT ( ( #141, #67, #22 ) ) REPRESENTATION_CONTEXT ( 'NONE', 'WORKASPACE' ) );
#20 = CARTESIAN_POINT ( 'NONE',  ( 0.000000000000000000, 0.000000000000000000, 0.000000000000000000 ) ) ;
#21 = CC_DESIGN_PERSON_AND_ORGANIZATION_ASSIGNMENT ( #111, #69, ( #62 ) ) ;
#22 =( NAMED_UNIT ( * ) SI_UNIT ( $, .STERADIAN. ) SOLID_ANGLE_UNIT ( ) );
#23 = APPROVAL_PERSON_ORGANIZATION ( #58, #5, #7 ) ;
#24 = AXIS2_PLACEMENT_3D ( 'NONE', #44, #13, #57 ) ;
#25 = APPLICATION_PROTOCOL_DEFINITION ( 'international standard', 'config_control_design', 1994, #59 ) ;
#26 = COORDINATED_UNIVERSAL_TIME_OFFSET ( 2, 0, .AHEAD. ) ;
#27 = ADVANCED_BREP_SHAPE_REPRESENTATION ( '010-1225E_UVFS_PCV_window', ( #169, #188 ), #19 ) ;
#28 = APPROVAL_DATE_TIME ( #196, #61 ) ;
#29 = DIRECTION ( 'NONE',  ( 1.000000000000000000, 0.000000000000000000, 0.000000000000000000 ) ) ;
#30 = CC_DESIGN_DATE_AND_TIME_ASSIGNMENT ( #103, #164, ( #137 ) ) ;
#31 = EDGE_CURVE ( 'NONE', #49, #189, #16, .T. ) ;
#32 = DIRECTION ( 'NONE',  ( -0.000000000000000000, -0.000000000000000000, -1.000000000000000000 ) ) ;
#33 = ORIENTED_EDGE ( 'NONE', *, *, #101, .T. ) ;
#34 = CC_DESIGN_APPROVAL ( #61, ( #137 ) ) ;
#35 = AXIS2_PLACEMENT_3D ( 'NONE', #121, #129, #183 ) ;
#36 = ORIENTED_EDGE ( 'NONE', *, *, #101, .F. ) ;
#37 = CARTESIAN_POINT ( 'NONE',  ( 12.69999999999999929, 1.555301434917138433E-15, 0.000000000000000000 ) ) ;
#38 = CARTESIAN_POINT ( 'NONE',  ( 2.463307335887066074E-13, 0.000000000000000000, 2005.959677093515666 ) ) ;
#39 = UNCERTAINTY_MEASURE_WITH_UNIT (LENGTH_MEASURE( 1.000000000000000082E-05 ), #141, 'distance_accuracy_value', 'NONE');
#40 = CC_DESIGN_APPROVAL ( #5, ( #192 ) ) ;
#41 = APPROVAL_STATUS ( 'not_yet_approved' ) ;
#42 = CALENDAR_DATE ( 2021, 25, 2 ) ;
#43 = CALENDAR_DATE ( 2021, 25, 2 ) ;
#44 = CARTESIAN_POINT ( 'NONE',  ( 0.000000000000000000, 0.000000000000000000, 6.000000000000000000 ) ) ;
#45 = CC_DESIGN_PERSON_AND_ORGANIZATION_ASSIGNMENT ( #12, #200, ( #108 ) ) ;
#46 = ORIENTED_EDGE ( 'NONE', *, *, #1, .F. ) ;
#47 = SHAPE_DEFINITION_REPRESENTATION ( #181, #27 ) ;
#48 = DIRECTION ( 'NONE',  ( 0.000000000000000000, -1.000000000000000000, -0.000000000000000000 ) ) ;
#49 = VERTEX_POINT ( 'NONE', #50 ) ;
#50 = CARTESIAN_POINT ( 'NONE',  ( -12.70000000001210338, 0.000000000000000000, 6.000000000000005329 ) ) ;
#51 = DIRECTION ( 'NONE',  ( 0.000000000000000000, 0.000000000000000000, 1.000000000000000000 ) ) ;
#52 = ORIENTED_EDGE ( 'NONE', *, *, #154, .F. ) ;
#53 = PERSON_AND_ORGANIZATION ( #178, #102 ) ;
#54 = LOCAL_TIME ( 13, 54, 47.00000000000000000, #177 ) ;
#55 = PLANE ( 'NONE',  #84 ) ;
#56 = EDGE_CURVE ( 'NONE', #14, #110, #153, .T. ) ;
#57 = DIRECTION ( 'NONE',  ( -1.000000000000000000, 0.000000000000000000, 0.000000000000000000 ) ) ;
#58 = PERSON_AND_ORGANIZATION ( #178, #102 ) ;
#59 = APPLICATION_CONTEXT ( 'configuration controlled 3d designs of mechanical parts and assemblies' ) ;
#60 = ORIENTED_EDGE ( 'NONE', *, *, #1, .T. ) ;
#61 = APPROVAL ( #41, 'UNSPECIFIED' ) ;
#62 = PRODUCT_DEFINITION_FORMATION_WITH_SPECIFIED_SOURCE ( 'ANY', '', #108, .NOT_KNOWN. ) ;
#63 = ORIENTED_EDGE ( 'NONE', *, *, #80, .F. ) ;
#64 = VECTOR ( 'NONE', #174, 1000.000000000000000 ) ;
#65 = EDGE_LOOP ( 'NONE', ( #149, #63, #60 ) ) ;
#66 = CARTESIAN_POINT ( 'NONE',  ( 12.70000000001259721, 1.555301434918681247E-15, 6.000000000000005329 ) ) ;
#67 =( NAMED_UNIT ( * ) PLANE_ANGLE_UNIT ( ) SI_UNIT ( $, .RADIAN. ) );
#68 = SPHERICAL_SURFACE ( 'NONE', #201, 2000.000000000000000 ) ;
#69 = PERSON_AND_ORGANIZATION_ROLE ( 'creator' ) ;
#70 = EDGE_CURVE ( 'NONE', #49, #110, #87, .T. ) ;
#71 = ADVANCED_FACE ( 'NONE', ( #146 ), #68, .F. ) ;
#72 = FACE_OUTER_BOUND ( 'NONE', #157, .T. ) ;
#73 = APPROVAL_DATE_TIME ( #76, #131 ) ;
#74 = LINE ( 'NONE', #165, #136 ) ;
#75 = ORIENTED_EDGE ( 'NONE', *, *, #154, .T. ) ;
#76 = DATE_AND_TIME ( #42, #152 ) ;
#77 = ORIENTED_EDGE ( 'NONE', *, *, #168, .T. ) ;
#78 = AXIS2_PLACEMENT_3D ( 'NONE', #122, #187, #51 ) ;
#79 = ADVANCED_FACE ( 'NONE', ( #9 ), #109, .F. ) ;
#80 = EDGE_CURVE ( 'NONE', #189, #49, #185, .T. ) ;
#81 = DIRECTION ( 'NONE',  ( 0.000000000000000000, 0.000000000000000000, 1.000000000000000000 ) ) ;
#82 = ORIENTED_EDGE ( 'NONE', *, *, #80, .T. ) ;
#83 = APPROVAL_PERSON_ORGANIZATION ( #10, #131, #173 ) ;
#84 = AXIS2_PLACEMENT_3D ( 'NONE', #20, #99, #98 ) ;
#85 = AXIS2_PLACEMENT_3D ( 'NONE', #92, #132, #112 ) ;
#86 = PERSON_AND_ORGANIZATION_ROLE ( 'creator' ) ;
#87 = LINE ( 'NONE', #106, #64 ) ;
#88 = DIRECTION ( 'NONE',  ( 1.000000000000000000, 0.000000000000000000, 0.000000000000000000 ) ) ;
#89 = CARTESIAN_POINT ( 'NONE',  ( 2.463307335887066074E-13, 0.000000000000000000, 6.000000000000005329 ) ) ;
#90 = VERTEX_POINT ( 'NONE', #11 ) ;
#91 = PERSON_AND_ORGANIZATION_ROLE ( 'design_supplier' ) ;
#92 = CARTESIAN_POINT ( 'NONE',  ( 0.000000000000000000, 0.000000000000000000, 6.000000000000000000 ) ) ;
#93 = ORIENTED_EDGE ( 'NONE', *, *, #56, .F. ) ;
#94 = CC_DESIGN_SECURITY_CLASSIFICATION ( #137, ( #62 ) ) ;
#95 = CIRCLE ( 'NONE', #78, 2000.000000000000455 ) ;
#96 = AXIS2_PLACEMENT_3D ( 'NONE', #89, #148, #8 ) ;
#97 = DIRECTION ( 'NONE',  ( -0.000000000000000000, -0.000000000000000000, -1.000000000000000000 ) ) ;
#98 = DIRECTION ( 'NONE',  ( 1.000000000000000000, 0.000000000000000000, -0.000000000000000000 ) ) ;
#99 = DIRECTION ( 'NONE',  ( 0.000000000000000000, 0.000000000000000000, 1.000000000000000000 ) ) ;
#100 = CC_DESIGN_PERSON_AND_ORGANIZATION_ASSIGNMENT ( #116, #91, ( #62 ) ) ;
#101 = EDGE_CURVE ( 'NONE', #189, #14, #74, .T. ) ;
#102 = ORGANIZATION ( 'UNSPECIFIED', 'UNSPECIFIED', '' ) ;
#103 = DATE_AND_TIME ( #182, #54 ) ;
#104 = CLOSED_SHELL ( 'NONE', ( #79, #133, #147, #167, #71 ) ) ;
#105 = PERSON_AND_ORGANIZATION_ROLE ( 'classification_officer' ) ;
#106 = CARTESIAN_POINT ( 'NONE',  ( -12.69999999999999929, 0.000000000000000000, 6.000000000000000000 ) ) ;
#107 = COORDINATED_UNIVERSAL_TIME_OFFSET ( 2, 0, .AHEAD. ) ;
#108 = PRODUCT ( '010-1225E_UVFS_PCV_window', '010-1225E_UVFS_PCV_window', '', ( #162 ) ) ;
#109 = SPHERICAL_SURFACE ( 'NONE', #176, 2000.000000000000000 ) ;
#110 = VERTEX_POINT ( 'NONE', #151 ) ;
#111 = PERSON_AND_ORGANIZATION ( #178, #102 ) ;
#112 = DIRECTION ( 'NONE',  ( -1.000000000000000000, 0.000000000000000000, 0.000000000000000000 ) ) ;
#113 = APPLICATION_CONTEXT ( 'configuration controlled 3d designs of mechanical parts and assemblies' ) ;
#114 = CIRCLE ( 'NONE', #35, 12.69999999999999929 ) ;
#115 = DIRECTION ( 'NONE',  ( 0.000000000000000000, 0.000000000000000000, 1.000000000000000000 ) ) ;
#116 = PERSON_AND_ORGANIZATION ( #178, #102 ) ;
#117 = APPROVAL_PERSON_ORGANIZATION ( #53, #61, #160 ) ;
#118 = COORDINATED_UNIVERSAL_TIME_OFFSET ( 2, 0, .AHEAD. ) ;
#119 = CYLINDRICAL_SURFACE ( 'NONE', #24, 12.69999999999999929 ) ;
#120 = APPROVAL_STATUS ( 'not_yet_approved' ) ;
#121 = CARTESIAN_POINT ( 'NONE',  ( 0.000000000000000000, 0.000000000000000000, 0.000000000000000000 ) ) ;
#122 = CARTESIAN_POINT ( 'NONE',  ( 2.463307335887066074E-13, 0.000000000000000000, 2005.959677093515666 ) ) ;
#123 = DATE_TIME_ROLE ( 'creation_date' ) ;
#124 = AXIS2_PLACEMENT_3D ( 'NONE', #17, #81, #125 ) ;
#125 = DIRECTION ( 'NONE',  ( 1.000000000000000000, 0.000000000000000000, 0.000000000000000000 ) ) ;
#126 = CC_DESIGN_PERSON_AND_ORGANIZATION_ASSIGNMENT ( #144, #105, ( #137 ) ) ;
#127 = DATE_AND_TIME ( #150, #3 ) ;
#128 = CALENDAR_DATE ( 2021, 25, 2 ) ;
#129 = DIRECTION ( 'NONE',  ( 0.000000000000000000, 0.000000000000000000, 1.000000000000000000 ) ) ;
#130 = COORDINATED_UNIVERSAL_TIME_OFFSET ( 2, 0, .AHEAD. ) ;
#131 = APPROVAL ( #6, 'UNSPECIFIED' ) ;
#132 = DIRECTION ( 'NONE',  ( -0.000000000000000000, -0.000000000000000000, -1.000000000000000000 ) ) ;
#133 = ADVANCED_FACE ( 'NONE', ( #199 ), #179, .T. ) ;
#134 = EDGE_LOOP ( 'NONE', ( #156, #33, #4, #135 ) ) ;
#135 = ORIENTED_EDGE ( 'NONE', *, *, #70, .F. ) ;
#136 = VECTOR ( 'NONE', #32, 1000.000000000000000 ) ;
#137 = SECURITY_CLASSIFICATION ( '', '', #194 ) ;
#138 = EDGE_LOOP ( 'NONE', ( #18, #77, #46 ) ) ;
#139 = AXIS2_PLACEMENT_3D ( 'NONE', #38, #142, #190 ) ;
#140 = CC_DESIGN_DATE_AND_TIME_ASSIGNMENT ( #145, #123, ( #192 ) ) ;
#141 =( LENGTH_UNIT ( ) NAMED_UNIT ( * ) SI_UNIT ( .MILLI., .METRE. ) );
#142 = DIRECTION ( 'NONE',  ( 1.224646799147353207E-16, -1.000000000000000000, 0.000000000000000000 ) ) ;
#143 = AXIS2_PLACEMENT_3D ( 'NONE', #2, #97, #155 ) ;
#144 = PERSON_AND_ORGANIZATION ( #178, #102 ) ;
#145 = DATE_AND_TIME ( #43, #166 ) ;
#146 = FACE_OUTER_BOUND ( 'NONE', #65, .T. ) ;
#147 = ADVANCED_FACE ( 'NONE', ( #72 ), #119, .T. ) ;
#148 = DIRECTION ( 'NONE',  ( -0.000000000000000000, -0.000000000000000000, -1.000000000000000000 ) ) ;
#149 = ORIENTED_EDGE ( 'NONE', *, *, #168, .F. ) ;
#150 = CALENDAR_DATE ( 2021, 25, 2 ) ;
#151 = CARTESIAN_POINT ( 'NONE',  ( -12.69999999999999929, 0.000000000000000000, 0.000000000000000000 ) ) ;
#152 = LOCAL_TIME ( 13, 54, 47.00000000000000000, #118 ) ;
#153 = CIRCLE ( 'NONE', #124, 12.69999999999999929 ) ;
#154 = EDGE_CURVE ( 'NONE', #110, #14, #114, .T. ) ;
#155 = DIRECTION ( 'NONE',  ( 1.000000000000000000, 0.000000000000000000, 0.000000000000000000 ) ) ;
#156 = ORIENTED_EDGE ( 'NONE', *, *, #31, .T. ) ;
#157 = EDGE_LOOP ( 'NONE', ( #36, #82, #180, #75 ) ) ;
#158 = DIRECTION ( 'NONE',  ( 1.000000000000000000, 0.000000000000000000, 0.000000000000000000 ) ) ;
#159 = CC_DESIGN_APPROVAL ( #131, ( #62 ) ) ;
#160 = APPROVAL_ROLE ( '' ) ;
#161 = CC_DESIGN_PERSON_AND_ORGANIZATION_ASSIGNMENT ( #198, #86, ( #192 ) ) ;
#162 = MECHANICAL_CONTEXT ( 'NONE', #59, 'mechanical' ) ;
#163 = CARTESIAN_POINT ( 'NONE',  ( 2.463307335887066074E-13, 0.000000000000000000, 2005.959677093515666 ) ) ;
#164 = DATE_TIME_ROLE ( 'classification_date' ) ;
#165 = CARTESIAN_POINT ( 'NONE',  ( 12.69999999999999929, 1.555301434917138433E-15, 6.000000000000000000 ) ) ;
#166 = LOCAL_TIME ( 13, 54, 47.00000000000000000, #130 ) ;
#167 = ADVANCED_FACE ( 'NONE', ( #197 ), #55, .F. ) ;
#168 = EDGE_CURVE ( 'NONE', #49, #90, #15, .T. ) ;
#169 = MANIFOLD_SOLID_BREP ( 'Cut-Revolve1', #104 ) ;
#170 = CARTESIAN_POINT ( 'NONE',  ( 0.000000000000000000, 0.000000000000000000, 0.000000000000000000 ) ) ;
#171 = DIRECTION ( 'NONE',  ( 0.000000000000000000, -1.000000000000000000, -0.000000000000000000 ) ) ;
#172 = LOCAL_TIME ( 13, 54, 47.00000000000000000, #107 ) ;
#173 = APPROVAL_ROLE ( '' ) ;
#174 = DIRECTION ( 'NONE',  ( -0.000000000000000000, -0.000000000000000000, -1.000000000000000000 ) ) ;
#175 = APPROVAL_DATE_TIME ( #127, #5 ) ;
#176 = AXIS2_PLACEMENT_3D ( 'NONE', #163, #48, #29 ) ;
#177 = COORDINATED_UNIVERSAL_TIME_OFFSET ( 2, 0, .AHEAD. ) ;
#178 = PERSON ( 'UNSPECIFIED', 'UNSPECIFIED', 'UNSPECIFIED', ('UNSPECIFIED'), ('UNSPECIFIED'), ('UNSPECIFIED') ) ;
#179 = CYLINDRICAL_SURFACE ( 'NONE', #85, 12.69999999999999929 ) ;
#180 = ORIENTED_EDGE ( 'NONE', *, *, #70, .T. ) ;
#181 = PRODUCT_DEFINITION_SHAPE ( 'NONE', 'NONE',  #192 ) ;
#182 = CALENDAR_DATE ( 2021, 25, 2 ) ;
#183 = DIRECTION ( 'NONE',  ( 1.000000000000000000, 0.000000000000000000, 0.000000000000000000 ) ) ;
#184 = EDGE_LOOP ( 'NONE', ( #52, #93 ) ) ;
#185 = CIRCLE ( 'NONE', #96, 12.70000000001234852 ) ;
#186 = PRODUCT_RELATED_PRODUCT_CATEGORY ( 'detail', '', ( #108 ) ) ;
#187 = DIRECTION ( 'NONE',  ( 0.000000000000000000, 1.000000000000000000, -0.000000000000000000 ) ) ;
#188 = AXIS2_PLACEMENT_3D ( 'NONE', #170, #115, #88 ) ;
#189 = VERTEX_POINT ( 'NONE', #66 ) ;
#190 = DIRECTION ( 'NONE',  ( 1.000000000000000000, 1.224646799147353207E-16, 0.000000000000000000 ) ) ;
#191 = CARTESIAN_POINT ( 'NONE',  ( 2.463307335887066074E-13, 0.000000000000000000, 2005.959677093515666 ) ) ;
#192 = PRODUCT_DEFINITION ( 'UNKNOWN', '', #62, #193 ) ;
#193 = DESIGN_CONTEXT ( 'detailed design', #113, 'design' ) ;
#194 = SECURITY_CLASSIFICATION_LEVEL ( 'unclassified' ) ;
#195 = APPLICATION_PROTOCOL_DEFINITION ( 'international standard', 'config_control_design', 1994, #113 ) ;
#196 = DATE_AND_TIME ( #128, #172 ) ;
#197 = FACE_OUTER_BOUND ( 'NONE', #184, .T. ) ;
#198 = PERSON_AND_ORGANIZATION ( #178, #102 ) ;
#199 = FACE_OUTER_BOUND ( 'NONE', #134, .T. ) ;
#200 = PERSON_AND_ORGANIZATION_ROLE ( 'design_owner' ) ;
#201 = AXIS2_PLACEMENT_3D ( 'NONE', #191, #171, #158 ) ;
ENDSEC;
END-ISO-10303-21;
