ISO-10303-21;
HEADER;
FILE_DESCRIPTION (( 'STEP AP203' ),
    '1' );
FILE_NAME ('010-1222E_UVFS_PCV_window.STEP',
    '2021-02-25T11:54:09',
    ( '' ),
    ( '' ),
    'SwSTEP 2.0',
    'SolidWorks 2019',
    '' );
FILE_SCHEMA (( 'CONFIG_CONTROL_DESIGN' ));
ENDSEC;

DATA;
#1 = CIRCLE ( 'NONE', #151, 12.69999999999486562 ) ;
#2 = LOCAL_TIME ( 13, 54, 9.000000000000000000, #107 ) ;
#3 = PERSON_AND_ORGANIZATION ( #156, #70 ) ;
#4 = ORIENTED_EDGE ( 'NONE', *, *, #136, .F. ) ;
#5 = COORDINATED_UNIVERSAL_TIME_OFFSET ( 2, 0, .AHEAD. ) ;
#6 = DIRECTION ( 'NONE',  ( -0.000000000000000000, -0.000000000000000000, -1.000000000000000000 ) ) ;
#7 = ORIENTED_EDGE ( 'NONE', *, *, #161, .T. ) ;
#8 = DIRECTION ( 'NONE',  ( -1.000000000000000000, 0.000000000000000000, 0.000000000000000000 ) ) ;
#9 = FACE_OUTER_BOUND ( 'NONE', #171, .T. ) ;
#10 = LOCAL_TIME ( 13, 54, 9.000000000000000000, #188 ) ;
#11 = PERSON_AND_ORGANIZATION ( #156, #70 ) ;
#12 = CARTESIAN_POINT ( 'NONE',  ( 1.856154119295183591E-13, 0.000000000000000000, 1505.946235703133425 ) ) ;
#13 = AXIS2_PLACEMENT_3D ( 'NONE', #196, #169, #31 ) ;
#14 = CALENDAR_DATE ( 2021, 25, 2 ) ;
#15 = CC_DESIGN_PERSON_AND_ORGANIZATION_ASSIGNMENT ( #137, #105, ( #120 ) ) ;
#16 = FACE_OUTER_BOUND ( 'NONE', #143, .T. ) ;
#17 = SECURITY_CLASSIFICATION ( '', '', #56 ) ;
#18 = DATE_AND_TIME ( #99, #84 ) ;
#19 = LINE ( 'NONE', #127, #32 ) ;
#20 = DIRECTION ( 'NONE',  ( -0.000000000000000000, -0.000000000000000000, -1.000000000000000000 ) ) ;
#21 = ORIENTED_EDGE ( 'NONE', *, *, #57, .T. ) ;
#22 = EDGE_LOOP ( 'NONE', ( #94, #77, #21, #7 ) ) ;
#23 = DIRECTION ( 'NONE',  ( 1.000000000000000000, 0.000000000000000000, 0.000000000000000000 ) ) ;
#24 = CC_DESIGN_PERSON_AND_ORGANIZATION_ASSIGNMENT ( #139, #191, ( #120 ) ) ;
#25 = PRODUCT_DEFINITION_SHAPE ( 'NONE', 'NONE',  #145 ) ;
#26 = CARTESIAN_POINT ( 'NONE',  ( 0.000000000000000000, 0.000000000000000000, 0.000000000000000000 ) ) ;
#27 = APPROVAL ( #179, 'UNSPECIFIED' ) ;
#28 = DIRECTION ( 'NONE',  ( 0.000000000000000000, 0.000000000000000000, 1.000000000000000000 ) ) ;
#29 = CARTESIAN_POINT ( 'NONE',  ( 12.69999999999505214, 1.555301434916835510E-15, 6.000000000000005329 ) ) ;
#30 = DATE_AND_TIME ( #142, #2 ) ;
#31 = DIRECTION ( 'NONE',  ( 1.000000000000000000, 0.000000000000000000, 0.000000000000000000 ) ) ;
#32 = VECTOR ( 'NONE', #20, 1000.000000000000000 ) ;
#33 = PERSON_AND_ORGANIZATION_ROLE ( 'classification_officer' ) ;
#34 = DIRECTION ( 'NONE',  ( 0.000000000000000000, -1.000000000000000000, -0.000000000000000000 ) ) ;
#35 = ORIENTED_EDGE ( 'NONE', *, *, #42, .F. ) ;
#36 = CLOSED_SHELL ( 'NONE', ( #100, #121, #85, #134, #175 ) ) ;
#37 = DIRECTION ( 'NONE',  ( 1.000000000000000000, 0.000000000000000000, 0.000000000000000000 ) ) ;
#38 = EDGE_CURVE ( 'NONE', #89, #62, #182, .T. ) ;
#39 = APPLICATION_PROTOCOL_DEFINITION ( 'international standard', 'config_control_design', 1994, #199 ) ;
#40 = COORDINATED_UNIVERSAL_TIME_OFFSET ( 2, 0, .AHEAD. ) ;
#41 = CIRCLE ( 'NONE', #117, 12.69999999999999929 ) ;
#42 = EDGE_CURVE ( 'NONE', #62, #89, #1, .T. ) ;
#43 =( NAMED_UNIT ( * ) SI_UNIT ( $, .STERADIAN. ) SOLID_ANGLE_UNIT ( ) );
#44 = APPLICATION_CONTEXT ( 'configuration controlled 3d designs of mechanical parts and assemblies' ) ;
#45 = COORDINATED_UNIVERSAL_TIME_OFFSET ( 2, 0, .AHEAD. ) ;
#46 = CC_DESIGN_APPROVAL ( #148, ( #120 ) ) ;
#47 = APPROVAL_ROLE ( '' ) ;
#48 = DIRECTION ( 'NONE',  ( 1.000000000000000000, 0.000000000000000000, 0.000000000000000000 ) ) ;
#49 = APPROVAL_STATUS ( 'not_yet_approved' ) ;
#50 = CARTESIAN_POINT ( 'NONE',  ( 1.856154119295183591E-13, 0.000000000000000000, 6.000000000000005329 ) ) ;
#51 = FACE_OUTER_BOUND ( 'NONE', #174, .T. ) ;
#52 = LOCAL_TIME ( 13, 54, 9.000000000000000000, #5 ) ;
#53 = DIRECTION ( 'NONE',  ( -0.000000000000000000, -0.000000000000000000, -1.000000000000000000 ) ) ;
#54 = ADVANCED_BREP_SHAPE_REPRESENTATION ( '010-1222E_UVFS_PCV_window', ( #103, #176 ), #163 ) ;
#55 =( NAMED_UNIT ( * ) PLANE_ANGLE_UNIT ( ) SI_UNIT ( $, .RADIAN. ) );
#56 = SECURITY_CLASSIFICATION_LEVEL ( 'unclassified' ) ;
#57 = EDGE_CURVE ( 'NONE', #89, #112, #19, .T. ) ;
#58 = CIRCLE ( 'NONE', #131, 12.69999999999999929 ) ;
#59 = DATE_AND_TIME ( #72, #52 ) ;
#60 = ORIENTED_EDGE ( 'NONE', *, *, #57, .F. ) ;
#61 = CARTESIAN_POINT ( 'NONE',  ( -12.69999999999468088, 0.000000000000000000, 6.000000000000005329 ) ) ;
#62 = VERTEX_POINT ( 'NONE', #29 ) ;
#63 = VECTOR ( 'NONE', #200, 1000.000000000000000 ) ;
#64 = ORIENTED_EDGE ( 'NONE', *, *, #161, .F. ) ;
#65 = VERTEX_POINT ( 'NONE', #144 ) ;
#66 = CARTESIAN_POINT ( 'NONE',  ( 12.69999999999999929, 1.555301434917138433E-15, 6.000000000000000000 ) ) ;
#67 = CARTESIAN_POINT ( 'NONE',  ( 1.856154119295183591E-13, 0.000000000000000000, 1505.946235703133425 ) ) ;
#68 = PLANE ( 'NONE',  #173 ) ;
#69 = LINE ( 'NONE', #66, #63 ) ;
#70 = ORGANIZATION ( 'UNSPECIFIED', 'UNSPECIFIED', '' ) ;
#71 = PRODUCT_RELATED_PRODUCT_CATEGORY ( 'detail', '', ( #129 ) ) ;
#72 = CALENDAR_DATE ( 2021, 25, 2 ) ;
#73 = DIRECTION ( 'NONE',  ( 1.000000000000000000, 0.000000000000000000, 0.000000000000000000 ) ) ;
#74 = PERSON_AND_ORGANIZATION ( #156, #70 ) ;
#75 = FACE_OUTER_BOUND ( 'NONE', #22, .T. ) ;
#76 = ORIENTED_EDGE ( 'NONE', *, *, #168, .T. ) ;
#77 = ORIENTED_EDGE ( 'NONE', *, *, #42, .T. ) ;
#78 = CC_DESIGN_PERSON_AND_ORGANIZATION_ASSIGNMENT ( #11, #162, ( #129 ) ) ;
#79 = VERTEX_POINT ( 'NONE', #159 ) ;
#80 = DIRECTION ( 'NONE',  ( 0.000000000000000000, 0.000000000000000000, 1.000000000000000000 ) ) ;
#81 = DIRECTION ( 'NONE',  ( 1.224646799147353207E-16, -1.000000000000000000, 0.000000000000000000 ) ) ;
#82 = CIRCLE ( 'NONE', #95, 1499.999999999999773 ) ;
#83 = DIRECTION ( 'NONE',  ( 1.000000000000000000, 0.000000000000000000, 0.000000000000000000 ) ) ;
#84 = LOCAL_TIME ( 13, 54, 9.000000000000000000, #40 ) ;
#85 = ADVANCED_FACE ( 'NONE', ( #75 ), #194, .T. ) ;
#86 =( LENGTH_UNIT ( ) NAMED_UNIT ( * ) SI_UNIT ( .MILLI., .METRE. ) );
#87 = APPROVAL_ROLE ( '' ) ;
#88 = DATE_TIME_ROLE ( 'creation_date' ) ;
#89 = VERTEX_POINT ( 'NONE', #61 ) ;
#90 = AXIS2_PLACEMENT_3D ( 'NONE', #155, #6, #8 ) ;
#91 = ORIENTED_EDGE ( 'NONE', *, *, #138, .T. ) ;
#92 = APPROVAL_STATUS ( 'not_yet_approved' ) ;
#93 = CARTESIAN_POINT ( 'NONE',  ( 0.000000000000000000, 0.000000000000000000, 6.000000000000000000 ) ) ;
#94 = ORIENTED_EDGE ( 'NONE', *, *, #138, .F. ) ;
#95 = AXIS2_PLACEMENT_3D ( 'NONE', #67, #183, #80 ) ;
#96 = DIRECTION ( 'NONE',  ( 1.000000000000000000, 0.000000000000000000, 0.000000000000000000 ) ) ;
#97 = DIRECTION ( 'NONE',  ( 0.000000000000000000, 0.000000000000000000, 1.000000000000000000 ) ) ;
#98 = LOCAL_TIME ( 13, 54, 9.000000000000000000, #45 ) ;
#99 = CALENDAR_DATE ( 2021, 25, 2 ) ;
#100 = ADVANCED_FACE ( 'NONE', ( #51 ), #125, .F. ) ;
#101 = APPROVAL_PERSON_ORGANIZATION ( #3, #195, #87 ) ;
#102 = CALENDAR_DATE ( 2021, 25, 2 ) ;
#103 = MANIFOLD_SOLID_BREP ( 'Cut-Revolve1', #36 ) ;
#104 = ORIENTED_EDGE ( 'NONE', *, *, #168, .F. ) ;
#105 = PERSON_AND_ORGANIZATION_ROLE ( 'creator' ) ;
#106 = ORIENTED_EDGE ( 'NONE', *, *, #38, .T. ) ;
#107 = COORDINATED_UNIVERSAL_TIME_OFFSET ( 2, 0, .AHEAD. ) ;
#108 = AXIS2_PLACEMENT_3D ( 'NONE', #147, #166, #83 ) ;
#109 = ORIENTED_EDGE ( 'NONE', *, *, #153, .T. ) ;
#110 = CC_DESIGN_PERSON_AND_ORGANIZATION_ASSIGNMENT ( #119, #33, ( #17 ) ) ;
#111 = ORIENTED_EDGE ( 'NONE', *, *, #136, .T. ) ;
#112 = VERTEX_POINT ( 'NONE', #187 ) ;
#113 = AXIS2_PLACEMENT_3D ( 'NONE', #12, #81, #135 ) ;
#114 = DIRECTION ( 'NONE',  ( -1.000000000000000000, 0.000000000000000000, 0.000000000000000000 ) ) ;
#115 = APPROVAL_ROLE ( '' ) ;
#116 = PERSON_AND_ORGANIZATION ( #156, #70 ) ;
#117 = AXIS2_PLACEMENT_3D ( 'NONE', #26, #178, #37 ) ;
#118 = DIRECTION ( 'NONE',  ( 1.000000000000000000, 0.000000000000000000, -0.000000000000000000 ) ) ;
#119 = PERSON_AND_ORGANIZATION ( #156, #70 ) ;
#120 = PRODUCT_DEFINITION_FORMATION_WITH_SPECIFIED_SOURCE ( 'ANY', '', #129, .NOT_KNOWN. ) ;
#121 = ADVANCED_FACE ( 'NONE', ( #16 ), #141, .T. ) ;
#122 = PERSON_AND_ORGANIZATION_ROLE ( 'creator' ) ;
#123 = EDGE_LOOP ( 'NONE', ( #104, #35, #111 ) ) ;
#124 = PERSON_AND_ORGANIZATION ( #156, #70 ) ;
#125 = SPHERICAL_SURFACE ( 'NONE', #165, 1500.000000000000000 ) ;
#126 = CC_DESIGN_APPROVAL ( #195, ( #17 ) ) ;
#127 = CARTESIAN_POINT ( 'NONE',  ( -12.69999999999999929, 0.000000000000000000, 6.000000000000000000 ) ) ;
#128 = ORIENTED_EDGE ( 'NONE', *, *, #153, .F. ) ;
#129 = PRODUCT ( '010-1222E_UVFS_PCV_window', '010-1222E_UVFS_PCV_window', '', ( #133 ) ) ;
#130 = FACE_OUTER_BOUND ( 'NONE', #123, .T. ) ;
#131 = AXIS2_PLACEMENT_3D ( 'NONE', #197, #150, #96 ) ;
#132 = CC_DESIGN_DATE_AND_TIME_ASSIGNMENT ( #184, #88, ( #145 ) ) ;
#133 = MECHANICAL_CONTEXT ( 'NONE', #199, 'mechanical' ) ;
#134 = ADVANCED_FACE ( 'NONE', ( #9 ), #68, .F. ) ;
#135 = DIRECTION ( 'NONE',  ( 1.000000000000000000, 1.224646799147353207E-16, 0.000000000000000000 ) ) ;
#136 = EDGE_CURVE ( 'NONE', #62, #65, #82, .T. ) ;
#137 = PERSON_AND_ORGANIZATION ( #156, #70 ) ;
#138 = EDGE_CURVE ( 'NONE', #62, #79, #69, .T. ) ;
#139 = PERSON_AND_ORGANIZATION ( #156, #70 ) ;
#140 = CIRCLE ( 'NONE', #113, 1500.000000000000000 ) ;
#141 = CYLINDRICAL_SURFACE ( 'NONE', #149, 12.69999999999999929 ) ;
#142 = CALENDAR_DATE ( 2021, 25, 2 ) ;
#143 = EDGE_LOOP ( 'NONE', ( #106, #91, #109, #60 ) ) ;
#144 = CARTESIAN_POINT ( 'NONE',  ( 2.774639218655698212E-13, 0.000000000000000000, 5.946235703133462280 ) ) ;
#145 = PRODUCT_DEFINITION ( 'UNKNOWN', '', #120, #164 ) ;
#146 = SPHERICAL_SURFACE ( 'NONE', #108, 1500.000000000000000 ) ;
#147 = CARTESIAN_POINT ( 'NONE',  ( 1.856154119295183591E-13, 0.000000000000000000, 1505.946235703133425 ) ) ;
#148 = APPROVAL ( #92, 'UNSPECIFIED' ) ;
#149 = AXIS2_PLACEMENT_3D ( 'NONE', #93, #53, #114 ) ;
#150 = DIRECTION ( 'NONE',  ( 0.000000000000000000, 0.000000000000000000, 1.000000000000000000 ) ) ;
#151 = AXIS2_PLACEMENT_3D ( 'NONE', #50, #189, #73 ) ;
#152 = APPROVAL_DATE_TIME ( #18, #27 ) ;
#153 = EDGE_CURVE ( 'NONE', #79, #112, #58, .T. ) ;
#154 = APPROVAL_DATE_TIME ( #59, #148 ) ;
#155 = CARTESIAN_POINT ( 'NONE',  ( 0.000000000000000000, 0.000000000000000000, 6.000000000000000000 ) ) ;
#156 = PERSON ( 'UNSPECIFIED', 'UNSPECIFIED', 'UNSPECIFIED', ('UNSPECIFIED'), ('UNSPECIFIED'), ('UNSPECIFIED') ) ;
#157 = DATE_AND_TIME ( #102, #98 ) ;
#158 = ORIENTED_EDGE ( 'NONE', *, *, #38, .F. ) ;
#159 = CARTESIAN_POINT ( 'NONE',  ( 12.69999999999999929, 1.555301434917138433E-15, 0.000000000000000000 ) ) ;
#160 = CC_DESIGN_SECURITY_CLASSIFICATION ( #17, ( #120 ) ) ;
#161 = EDGE_CURVE ( 'NONE', #112, #79, #41, .T. ) ;
#162 = PERSON_AND_ORGANIZATION_ROLE ( 'design_owner' ) ;
#163 =( GEOMETRIC_REPRESENTATION_CONTEXT ( 3 ) GLOBAL_UNCERTAINTY_ASSIGNED_CONTEXT ( ( #201 ) ) GLOBAL_UNIT_ASSIGNED_CONTEXT ( ( #86, #55, #43 ) ) REPRESENTATION_CONTEXT ( 'NONE', 'WORKASPACE' ) );
#164 = DESIGN_CONTEXT ( 'detailed design', #44, 'design' ) ;
#165 = AXIS2_PLACEMENT_3D ( 'NONE', #192, #34, #48 ) ;
#166 = DIRECTION ( 'NONE',  ( 0.000000000000000000, -1.000000000000000000, -0.000000000000000000 ) ) ;
#167 = CARTESIAN_POINT ( 'NONE',  ( 0.000000000000000000, 0.000000000000000000, 0.000000000000000000 ) ) ;
#168 = EDGE_CURVE ( 'NONE', #89, #65, #140, .T. ) ;
#169 = DIRECTION ( 'NONE',  ( -0.000000000000000000, -0.000000000000000000, -1.000000000000000000 ) ) ;
#170 = APPROVAL_DATE_TIME ( #30, #195 ) ;
#171 = EDGE_LOOP ( 'NONE', ( #64, #128 ) ) ;
#172 = SHAPE_DEFINITION_REPRESENTATION ( #25, #54 ) ;
#173 = AXIS2_PLACEMENT_3D ( 'NONE', #167, #28, #118 ) ;
#174 = EDGE_LOOP ( 'NONE', ( #158, #76, #4 ) ) ;
#175 = ADVANCED_FACE ( 'NONE', ( #130 ), #146, .F. ) ;
#176 = AXIS2_PLACEMENT_3D ( 'NONE', #177, #97, #23 ) ;
#177 = CARTESIAN_POINT ( 'NONE',  ( 0.000000000000000000, 0.000000000000000000, 0.000000000000000000 ) ) ;
#178 = DIRECTION ( 'NONE',  ( 0.000000000000000000, 0.000000000000000000, 1.000000000000000000 ) ) ;
#179 = APPROVAL_STATUS ( 'not_yet_approved' ) ;
#180 = APPROVAL_PERSON_ORGANIZATION ( #116, #27, #115 ) ;
#181 = CC_DESIGN_DATE_AND_TIME_ASSIGNMENT ( #157, #185, ( #17 ) ) ;
#182 = CIRCLE ( 'NONE', #13, 12.69999999999486562 ) ;
#183 = DIRECTION ( 'NONE',  ( 0.000000000000000000, 1.000000000000000000, -0.000000000000000000 ) ) ;
#184 = DATE_AND_TIME ( #14, #10 ) ;
#185 = DATE_TIME_ROLE ( 'classification_date' ) ;
#186 = CC_DESIGN_APPROVAL ( #27, ( #145 ) ) ;
#187 = CARTESIAN_POINT ( 'NONE',  ( -12.69999999999999929, 0.000000000000000000, 0.000000000000000000 ) ) ;
#188 = COORDINATED_UNIVERSAL_TIME_OFFSET ( 2, 0, .AHEAD. ) ;
#189 = DIRECTION ( 'NONE',  ( -0.000000000000000000, -0.000000000000000000, -1.000000000000000000 ) ) ;
#190 = CC_DESIGN_PERSON_AND_ORGANIZATION_ASSIGNMENT ( #124, #122, ( #145 ) ) ;
#191 = PERSON_AND_ORGANIZATION_ROLE ( 'design_supplier' ) ;
#192 = CARTESIAN_POINT ( 'NONE',  ( 1.856154119295183591E-13, 0.000000000000000000, 1505.946235703133425 ) ) ;
#193 = APPROVAL_PERSON_ORGANIZATION ( #74, #148, #47 ) ;
#194 = CYLINDRICAL_SURFACE ( 'NONE', #90, 12.69999999999999929 ) ;
#195 = APPROVAL ( #49, 'UNSPECIFIED' ) ;
#196 = CARTESIAN_POINT ( 'NONE',  ( 1.856154119295183591E-13, 0.000000000000000000, 6.000000000000005329 ) ) ;
#197 = CARTESIAN_POINT ( 'NONE',  ( 0.000000000000000000, 0.000000000000000000, 0.000000000000000000 ) ) ;
#198 = APPLICATION_PROTOCOL_DEFINITION ( 'international standard', 'config_control_design', 1994, #44 ) ;
#199 = APPLICATION_CONTEXT ( 'configuration controlled 3d designs of mechanical parts and assemblies' ) ;
#200 = DIRECTION ( 'NONE',  ( -0.000000000000000000, -0.000000000000000000, -1.000000000000000000 ) ) ;
#201 = UNCERTAINTY_MEASURE_WITH_UNIT (LENGTH_MEASURE( 1.000000000000000082E-05 ), #86, 'distance_accuracy_value', 'NONE');
ENDSEC;
END-ISO-10303-21;
