ISO-10303-21;
HEADER;
FILE_DESCRIPTION (( 'STEP AP203' ),
    '1' );
FILE_NAME ('010-1220E_UVFS_PCV_window.STEP',
    '2021-02-25T11:53:45',
    ( '' ),
    ( '' ),
    'SwSTEP 2.0',
    'SolidWorks 2019',
    '' );
FILE_SCHEMA (( 'CONFIG_CONTROL_DESIGN' ));
ENDSEC;

DATA;
#1 = LOCAL_TIME ( 13, 53, 45.00000000000000000, #94 ) ;
#2 = EDGE_CURVE ( 'NONE', #160, #167, #184, .T. ) ;
#3 = DIRECTION ( 'NONE',  ( 1.000000000000000000, 0.000000000000000000, 0.000000000000000000 ) ) ;
#4 = APPROVAL_ROLE ( '' ) ;
#5 = SPHERICAL_SURFACE ( 'NONE', #125, 1000.000000000000000 ) ;
#6 = FACE_OUTER_BOUND ( 'NONE', #120, .T. ) ;
#7 = ORIENTED_EDGE ( 'NONE', *, *, #99, .T. ) ;
#8 = AXIS2_PLACEMENT_3D ( 'NONE', #147, #166, #102 ) ;
#9 = CC_DESIGN_DATE_AND_TIME_ASSIGNMENT ( #31, #60, ( #145 ) ) ;
#10 = ADVANCED_FACE ( 'NONE', ( #95 ), #158, .T. ) ;
#11 = SECURITY_CLASSIFICATION_LEVEL ( 'unclassified' ) ;
#12 = DIRECTION ( 'NONE',  ( 1.000000000000000000, 0.000000000000000000, 0.000000000000000000 ) ) ;
#13 = AXIS2_PLACEMENT_3D ( 'NONE', #41, #117, #23 ) ;
#14 = CARTESIAN_POINT ( 'NONE',  ( 1.249000902703301108E-13, 0.000000000000000000, 1005.919351747929682 ) ) ;
#15 = LOCAL_TIME ( 13, 53, 45.00000000000000000, #157 ) ;
#16 = PERSON_AND_ORGANIZATION ( #55, #48 ) ;
#17 = DATE_TIME_ROLE ( 'creation_date' ) ;
#18 = EDGE_LOOP ( 'NONE', ( #198, #37 ) ) ;
#19 = CC_DESIGN_PERSON_AND_ORGANIZATION_ASSIGNMENT ( #107, #172, ( #197 ) ) ;
#20 = CIRCLE ( 'NONE', #53, 1000.000000000000227 ) ;
#21 = AXIS2_PLACEMENT_3D ( 'NONE', #194, #42, #103 ) ;
#22 = ADVANCED_BREP_SHAPE_REPRESENTATION ( '010-1220E_UVFS_PCV_window', ( #38, #144 ), #161 ) ;
#23 = DIRECTION ( 'NONE',  ( -1.000000000000000000, 0.000000000000000000, 0.000000000000000000 ) ) ;
#24 = APPLICATION_PROTOCOL_DEFINITION ( 'international standard', 'config_control_design', 1994, #118 ) ;
#25 = DIRECTION ( 'NONE',  ( 0.000000000000000000, -1.000000000000000000, -0.000000000000000000 ) ) ;
#26 = CARTESIAN_POINT ( 'NONE',  ( 0.000000000000000000, 0.000000000000000000, 6.000000000000000000 ) ) ;
#27 = ORIENTED_EDGE ( 'NONE', *, *, #2, .F. ) ;
#28 = AXIS2_PLACEMENT_3D ( 'NONE', #155, #137, #56 ) ;
#29 = CALENDAR_DATE ( 2021, 25, 2 ) ;
#30 = DIRECTION ( 'NONE',  ( 1.224646799147353207E-16, -1.000000000000000000, 0.000000000000000000 ) ) ;
#31 = DATE_AND_TIME ( #29, #15 ) ;
#32 = DIRECTION ( 'NONE',  ( 0.000000000000000000, 0.000000000000000000, 1.000000000000000000 ) ) ;
#33 = APPLICATION_CONTEXT ( 'configuration controlled 3d designs of mechanical parts and assemblies' ) ;
#34 = CC_DESIGN_SECURITY_CLASSIFICATION ( #145, ( #197 ) ) ;
#35 = PERSON_AND_ORGANIZATION ( #55, #48 ) ;
#36 = CC_DESIGN_PERSON_AND_ORGANIZATION_ASSIGNMENT ( #67, #40, ( #77 ) ) ;
#37 = ORIENTED_EDGE ( 'NONE', *, *, #141, .F. ) ;
#38 = MANIFOLD_SOLID_BREP ( 'Cut-Revolve1', #79 ) ;
#39 = CIRCLE ( 'NONE', #8, 12.70000000000360707 ) ;
#40 = PERSON_AND_ORGANIZATION_ROLE ( 'design_owner' ) ;
#41 = CARTESIAN_POINT ( 'NONE',  ( 0.000000000000000000, 0.000000000000000000, 6.000000000000000000 ) ) ;
#42 = DIRECTION ( 'NONE',  ( 0.000000000000000000, 0.000000000000000000, 1.000000000000000000 ) ) ;
#43 = ORIENTED_EDGE ( 'NONE', *, *, #193, .F. ) ;
#44 = LOCAL_TIME ( 13, 53, 45.00000000000000000, #57 ) ;
#45 = PERSON_AND_ORGANIZATION_ROLE ( 'classification_officer' ) ;
#46 = APPROVAL_STATUS ( 'not_yet_approved' ) ;
#47 = DIRECTION ( 'NONE',  ( 1.000000000000000000, 1.224646799147353207E-16, 0.000000000000000000 ) ) ;
#48 = ORGANIZATION ( 'UNSPECIFIED', 'UNSPECIFIED', '' ) ;
#49 = PRODUCT_DEFINITION ( 'UNKNOWN', '', #197, #164 ) ;
#50 = APPROVAL_ROLE ( '' ) ;
#51 = CC_DESIGN_APPROVAL ( #139, ( #197 ) ) ;
#52 = PLANE ( 'NONE',  #162 ) ;
#53 = AXIS2_PLACEMENT_3D ( 'NONE', #174, #106, #32 ) ;
#54 = CYLINDRICAL_SURFACE ( 'NONE', #110, 12.69999999999999929 ) ;
#55 = PERSON ( 'UNSPECIFIED', 'UNSPECIFIED', 'UNSPECIFIED', ('UNSPECIFIED'), ('UNSPECIFIED'), ('UNSPECIFIED') ) ;
#56 = DIRECTION ( 'NONE',  ( 1.000000000000000000, 0.000000000000000000, 0.000000000000000000 ) ) ;
#57 = COORDINATED_UNIVERSAL_TIME_OFFSET ( 2, 0, .AHEAD. ) ;
#58 = AXIS2_PLACEMENT_3D ( 'NONE', #200, #30, #47 ) ;
#59 = CALENDAR_DATE ( 2021, 25, 2 ) ;
#60 = DATE_TIME_ROLE ( 'classification_date' ) ;
#61 = ADVANCED_FACE ( 'NONE', ( #134 ), #54, .T. ) ;
#62 = CARTESIAN_POINT ( 'NONE',  ( 1.861324302276977858E-13, 0.000000000000000000, 5.919351747929679775 ) ) ;
#63 = EDGE_LOOP ( 'NONE', ( #129, #96, #113 ) ) ;
#64 = ORIENTED_EDGE ( 'NONE', *, *, #2, .T. ) ;
#65 = APPROVAL_PERSON_ORGANIZATION ( #124, #139, #50 ) ;
#66 = CC_DESIGN_PERSON_AND_ORGANIZATION_ASSIGNMENT ( #201, #183, ( #197 ) ) ;
#67 = PERSON_AND_ORGANIZATION ( #55, #48 ) ;
#68 = DIRECTION ( 'NONE',  ( 1.000000000000000000, 0.000000000000000000, 0.000000000000000000 ) ) ;
#69 = CARTESIAN_POINT ( 'NONE',  ( 1.249000902703301108E-13, 0.000000000000000000, 1005.919351747929682 ) ) ;
#70 = APPROVAL_PERSON_ORGANIZATION ( #192, #74, #4 ) ;
#71 = ORIENTED_EDGE ( 'NONE', *, *, #178, .T. ) ;
#72 = APPROVAL_PERSON_ORGANIZATION ( #16, #80, #127 ) ;
#73 = DIRECTION ( 'NONE',  ( 0.000000000000000000, -1.000000000000000000, -0.000000000000000000 ) ) ;
#74 = APPROVAL ( #146, 'UNSPECIFIED' ) ;
#75 = CARTESIAN_POINT ( 'NONE',  ( 12.69999999999999929, 1.555301434917138433E-15, 0.000000000000000000 ) ) ;
#76 = APPROVAL_DATE_TIME ( #109, #74 ) ;
#77 = PRODUCT ( '010-1220E_UVFS_PCV_window', '010-1220E_UVFS_PCV_window', '', ( #116 ) ) ;
#78 = EDGE_LOOP ( 'NONE', ( #151, #64, #97, #135 ) ) ;
#79 = CLOSED_SHELL ( 'NONE', ( #159, #61, #10, #82, #121 ) ) ;
#80 = APPROVAL ( #177, 'UNSPECIFIED' ) ;
#81 = CC_DESIGN_APPROVAL ( #74, ( #49 ) ) ;
#82 = ADVANCED_FACE ( 'NONE', ( #84 ), #52, .F. ) ;
#83 = APPLICATION_PROTOCOL_DEFINITION ( 'international standard', 'config_control_design', 1994, #33 ) ;
#84 = FACE_OUTER_BOUND ( 'NONE', #18, .T. ) ;
#85 = CARTESIAN_POINT ( 'NONE',  ( 0.000000000000000000, 0.000000000000000000, 0.000000000000000000 ) ) ;
#86 = EDGE_LOOP ( 'NONE', ( #27, #87, #71, #7 ) ) ;
#87 = ORIENTED_EDGE ( 'NONE', *, *, #130, .T. ) ;
#88 = CALENDAR_DATE ( 2021, 25, 2 ) ;
#89 =( LENGTH_UNIT ( ) NAMED_UNIT ( * ) SI_UNIT ( .MILLI., .METRE. ) );
#90 = APPROVAL_DATE_TIME ( #186, #80 ) ;
#91 = SPHERICAL_SURFACE ( 'NONE', #152, 1000.000000000000000 ) ;
#92 = PERSON_AND_ORGANIZATION ( #55, #48 ) ;
#93 = LOCAL_TIME ( 13, 53, 45.00000000000000000, #169 ) ;
#94 = COORDINATED_UNIVERSAL_TIME_OFFSET ( 2, 0, .AHEAD. ) ;
#95 = FACE_OUTER_BOUND ( 'NONE', #86, .T. ) ;
#96 = ORIENTED_EDGE ( 'NONE', *, *, #193, .T. ) ;
#97 = ORIENTED_EDGE ( 'NONE', *, *, #141, .T. ) ;
#98 = VECTOR ( 'NONE', #123, 1000.000000000000000 ) ;
#99 = EDGE_CURVE ( 'NONE', #153, #167, #196, .T. ) ;
#100 = UNCERTAINTY_MEASURE_WITH_UNIT (LENGTH_MEASURE( 1.000000000000000082E-05 ), #89, 'distance_accuracy_value', 'NONE');
#101 = DIRECTION ( 'NONE',  ( 0.000000000000000000, 0.000000000000000000, 1.000000000000000000 ) ) ;
#102 = DIRECTION ( 'NONE',  ( 1.000000000000000000, 0.000000000000000000, 0.000000000000000000 ) ) ;
#103 = DIRECTION ( 'NONE',  ( 1.000000000000000000, 0.000000000000000000, 0.000000000000000000 ) ) ;
#104 = EDGE_CURVE ( 'NONE', #142, #160, #39, .T. ) ;
#105 = COORDINATED_UNIVERSAL_TIME_OFFSET ( 2, 0, .AHEAD. ) ;
#106 = DIRECTION ( 'NONE',  ( 0.000000000000000000, 1.000000000000000000, -0.000000000000000000 ) ) ;
#107 = PERSON_AND_ORGANIZATION ( #55, #48 ) ;
#108 = FACE_OUTER_BOUND ( 'NONE', #63, .T. ) ;
#109 = DATE_AND_TIME ( #59, #136 ) ;
#110 = AXIS2_PLACEMENT_3D ( 'NONE', #26, #182, #181 ) ;
#111 = DATE_AND_TIME ( #140, #93 ) ;
#112 = DIRECTION ( 'NONE',  ( -0.000000000000000000, -0.000000000000000000, -1.000000000000000000 ) ) ;
#113 = ORIENTED_EDGE ( 'NONE', *, *, #180, .F. ) ;
#114 = CC_DESIGN_PERSON_AND_ORGANIZATION_ASSIGNMENT ( #92, #126, ( #49 ) ) ;
#115 = CIRCLE ( 'NONE', #28, 12.69999999999999929 ) ;
#116 = MECHANICAL_CONTEXT ( 'NONE', #118, 'mechanical' ) ;
#117 = DIRECTION ( 'NONE',  ( -0.000000000000000000, -0.000000000000000000, -1.000000000000000000 ) ) ;
#118 = APPLICATION_CONTEXT ( 'configuration controlled 3d designs of mechanical parts and assemblies' ) ;
#119 = DIRECTION ( 'NONE',  ( -0.000000000000000000, -0.000000000000000000, -1.000000000000000000 ) ) ;
#120 = EDGE_LOOP ( 'NONE', ( #43, #168, #195 ) ) ;
#121 = ADVANCED_FACE ( 'NONE', ( #6 ), #5, .F. ) ;
#122 = CARTESIAN_POINT ( 'NONE',  ( 12.70000000000373319, 1.555301434917595775E-15, 6.000000000000005329 ) ) ;
#123 = DIRECTION ( 'NONE',  ( -0.000000000000000000, -0.000000000000000000, -1.000000000000000000 ) ) ;
#124 = PERSON_AND_ORGANIZATION ( #55, #48 ) ;
#125 = AXIS2_PLACEMENT_3D ( 'NONE', #69, #25, #68 ) ;
#126 = PERSON_AND_ORGANIZATION_ROLE ( 'creator' ) ;
#127 = APPROVAL_ROLE ( '' ) ;
#128 = PRODUCT_DEFINITION_SHAPE ( 'NONE', 'NONE',  #49 ) ;
#129 = ORIENTED_EDGE ( 'NONE', *, *, #104, .F. ) ;
#130 = EDGE_CURVE ( 'NONE', #160, #142, #179, .T. ) ;
#131 =( NAMED_UNIT ( * ) PLANE_ANGLE_UNIT ( ) SI_UNIT ( $, .RADIAN. ) );
#132 = CARTESIAN_POINT ( 'NONE',  ( 0.000000000000000000, 0.000000000000000000, 0.000000000000000000 ) ) ;
#133 = DIRECTION ( 'NONE',  ( 0.000000000000000000, 0.000000000000000000, 1.000000000000000000 ) ) ;
#134 = FACE_OUTER_BOUND ( 'NONE', #78, .T. ) ;
#135 = ORIENTED_EDGE ( 'NONE', *, *, #178, .F. ) ;
#136 = LOCAL_TIME ( 13, 53, 45.00000000000000000, #105 ) ;
#137 = DIRECTION ( 'NONE',  ( 0.000000000000000000, 0.000000000000000000, 1.000000000000000000 ) ) ;
#138 = LINE ( 'NONE', #199, #98 ) ;
#139 = APPROVAL ( #46, 'UNSPECIFIED' ) ;
#140 = CALENDAR_DATE ( 2021, 25, 2 ) ;
#141 = EDGE_CURVE ( 'NONE', #167, #153, #115, .T. ) ;
#142 = VERTEX_POINT ( 'NONE', #171 ) ;
#143 = VERTEX_POINT ( 'NONE', #62 ) ;
#144 = AXIS2_PLACEMENT_3D ( 'NONE', #132, #101, #3 ) ;
#145 = SECURITY_CLASSIFICATION ( '', '', #11 ) ;
#146 = APPROVAL_STATUS ( 'not_yet_approved' ) ;
#147 = CARTESIAN_POINT ( 'NONE',  ( 1.249000902703301108E-13, 0.000000000000000000, 6.000000000000005329 ) ) ;
#148 =( NAMED_UNIT ( * ) SI_UNIT ( $, .STERADIAN. ) SOLID_ANGLE_UNIT ( ) );
#149 = CARTESIAN_POINT ( 'NONE',  ( 1.249000902703301108E-13, 0.000000000000000000, 6.000000000000005329 ) ) ;
#150 = CC_DESIGN_PERSON_AND_ORGANIZATION_ASSIGNMENT ( #35, #45, ( #145 ) ) ;
#151 = ORIENTED_EDGE ( 'NONE', *, *, #104, .T. ) ;
#152 = AXIS2_PLACEMENT_3D ( 'NONE', #14, #73, #12 ) ;
#153 = VERTEX_POINT ( 'NONE', #154 ) ;
#154 = CARTESIAN_POINT ( 'NONE',  ( -12.69999999999999929, 0.000000000000000000, 0.000000000000000000 ) ) ;
#155 = CARTESIAN_POINT ( 'NONE',  ( 0.000000000000000000, 0.000000000000000000, 0.000000000000000000 ) ) ;
#156 = APPROVAL_DATE_TIME ( #111, #139 ) ;
#157 = COORDINATED_UNIVERSAL_TIME_OFFSET ( 2, 0, .AHEAD. ) ;
#158 = CYLINDRICAL_SURFACE ( 'NONE', #13, 12.69999999999999929 ) ;
#159 = ADVANCED_FACE ( 'NONE', ( #108 ), #91, .F. ) ;
#160 = VERTEX_POINT ( 'NONE', #122 ) ;
#161 =( GEOMETRIC_REPRESENTATION_CONTEXT ( 3 ) GLOBAL_UNCERTAINTY_ASSIGNED_CONTEXT ( ( #100 ) ) GLOBAL_UNIT_ASSIGNED_CONTEXT ( ( #89, #131, #148 ) ) REPRESENTATION_CONTEXT ( 'NONE', 'WORKASPACE' ) );
#162 = AXIS2_PLACEMENT_3D ( 'NONE', #85, #133, #165 ) ;
#163 = CC_DESIGN_APPROVAL ( #80, ( #145 ) ) ;
#164 = DESIGN_CONTEXT ( 'detailed design', #33, 'design' ) ;
#165 = DIRECTION ( 'NONE',  ( 1.000000000000000000, 0.000000000000000000, -0.000000000000000000 ) ) ;
#166 = DIRECTION ( 'NONE',  ( -0.000000000000000000, -0.000000000000000000, -1.000000000000000000 ) ) ;
#167 = VERTEX_POINT ( 'NONE', #75 ) ;
#168 = ORIENTED_EDGE ( 'NONE', *, *, #130, .F. ) ;
#169 = COORDINATED_UNIVERSAL_TIME_OFFSET ( 2, 0, .AHEAD. ) ;
#170 = CARTESIAN_POINT ( 'NONE',  ( 12.69999999999999929, 1.555301434917138433E-15, 6.000000000000000000 ) ) ;
#171 = CARTESIAN_POINT ( 'NONE',  ( -12.70000000000348273, 0.000000000000000000, 6.000000000000005329 ) ) ;
#172 = PERSON_AND_ORGANIZATION_ROLE ( 'creator' ) ;
#173 = CIRCLE ( 'NONE', #58, 1000.000000000000000 ) ;
#174 = CARTESIAN_POINT ( 'NONE',  ( 1.249000902703301108E-13, 0.000000000000000000, 1005.919351747929682 ) ) ;
#175 = PRODUCT_RELATED_PRODUCT_CATEGORY ( 'detail', '', ( #77 ) ) ;
#176 = DATE_AND_TIME ( #188, #44 ) ;
#177 = APPROVAL_STATUS ( 'not_yet_approved' ) ;
#178 = EDGE_CURVE ( 'NONE', #142, #153, #138, .T. ) ;
#179 = CIRCLE ( 'NONE', #187, 12.70000000000360707 ) ;
#180 = EDGE_CURVE ( 'NONE', #160, #143, #20, .T. ) ;
#181 = DIRECTION ( 'NONE',  ( -1.000000000000000000, 0.000000000000000000, 0.000000000000000000 ) ) ;
#182 = DIRECTION ( 'NONE',  ( -0.000000000000000000, -0.000000000000000000, -1.000000000000000000 ) ) ;
#183 = PERSON_AND_ORGANIZATION_ROLE ( 'design_supplier' ) ;
#184 = LINE ( 'NONE', #170, #190 ) ;
#185 = DIRECTION ( 'NONE',  ( 1.000000000000000000, 0.000000000000000000, 0.000000000000000000 ) ) ;
#186 = DATE_AND_TIME ( #88, #1 ) ;
#187 = AXIS2_PLACEMENT_3D ( 'NONE', #149, #119, #185 ) ;
#188 = CALENDAR_DATE ( 2021, 25, 2 ) ;
#189 = SHAPE_DEFINITION_REPRESENTATION ( #128, #22 ) ;
#190 = VECTOR ( 'NONE', #112, 1000.000000000000000 ) ;
#191 = CC_DESIGN_DATE_AND_TIME_ASSIGNMENT ( #176, #17, ( #49 ) ) ;
#192 = PERSON_AND_ORGANIZATION ( #55, #48 ) ;
#193 = EDGE_CURVE ( 'NONE', #142, #143, #173, .T. ) ;
#194 = CARTESIAN_POINT ( 'NONE',  ( 0.000000000000000000, 0.000000000000000000, 0.000000000000000000 ) ) ;
#195 = ORIENTED_EDGE ( 'NONE', *, *, #180, .T. ) ;
#196 = CIRCLE ( 'NONE', #21, 12.69999999999999929 ) ;
#197 = PRODUCT_DEFINITION_FORMATION_WITH_SPECIFIED_SOURCE ( 'ANY', '', #77, .NOT_KNOWN. ) ;
#198 = ORIENTED_EDGE ( 'NONE', *, *, #99, .F. ) ;
#199 = CARTESIAN_POINT ( 'NONE',  ( -12.69999999999999929, 0.000000000000000000, 6.000000000000000000 ) ) ;
#200 = CARTESIAN_POINT ( 'NONE',  ( 1.249000902703301108E-13, 0.000000000000000000, 1005.919351747929682 ) ) ;
#201 = PERSON_AND_ORGANIZATION ( #55, #48 ) ;
ENDSEC;
END-ISO-10303-21;
