ISO-10303-21;
HEADER;
FILE_DESCRIPTION (( 'STEP AP203' ),
    '1' );
FILE_NAME ('010-1217E_UVFS_PCV_window.STEP',
    '2021-02-25T11:53:20',
    ( '' ),
    ( '' ),
    'SwSTEP 2.0',
    'SolidWorks 2019',
    '' );
FILE_SCHEMA (( 'CONFIG_CONTROL_DESIGN' ));
ENDSEC;

DATA;
#1 = CARTESIAN_POINT ( 'NONE',  ( 0.000000000000000000, 0.000000000000000000, 0.000000000000000000 ) ) ;
#2 = AXIS2_PLACEMENT_3D ( 'NONE', #64, #3, #99 ) ;
#3 = DIRECTION ( 'NONE',  ( 1.224646799147353207E-16, -1.000000000000000000, 0.000000000000000000 ) ) ;
#4 = SECURITY_CLASSIFICATION_LEVEL ( 'unclassified' ) ;
#5 = DIRECTION ( 'NONE',  ( 0.000000000000000000, 0.000000000000000000, 1.000000000000000000 ) ) ;
#6 = APPROVAL_ROLE ( '' ) ;
#7 = AXIS2_PLACEMENT_3D ( 'NONE', #130, #5, #84 ) ;
#8 = DATE_AND_TIME ( #190, #74 ) ;
#9 = EDGE_LOOP ( 'NONE', ( #105, #165, #194, #162 ) ) ;
#10 = AXIS2_PLACEMENT_3D ( 'NONE', #111, #33, #184 ) ;
#11 = APPROVAL ( #86, 'UNSPECIFIED' ) ;
#12 = FACE_OUTER_BOUND ( 'NONE', #26, .T. ) ;
#13 = CARTESIAN_POINT ( 'NONE',  ( -12.69999999999475371, 0.000000000000000000, 6.000000000000005329 ) ) ;
#14 = CARTESIAN_POINT ( 'NONE',  ( 12.69999999999999929, 1.555301434917138433E-15, 6.000000000000000000 ) ) ;
#15 = DIRECTION ( 'NONE',  ( 0.000000000000000000, 0.000000000000000000, 1.000000000000000000 ) ) ;
#16 =( GEOMETRIC_REPRESENTATION_CONTEXT ( 3 ) GLOBAL_UNCERTAINTY_ASSIGNED_CONTEXT ( ( #96 ) ) GLOBAL_UNIT_ASSIGNED_CONTEXT ( ( #49, #122, #150 ) ) REPRESENTATION_CONTEXT ( 'NONE', 'WORKASPACE' ) );
#17 = DIRECTION ( 'NONE',  ( 1.000000000000000000, 0.000000000000000000, 0.000000000000000000 ) ) ;
#18 = PRODUCT_DEFINITION ( 'UNKNOWN', '', #58, #83 ) ;
#19 = COORDINATED_UNIVERSAL_TIME_OFFSET ( 2, 0, .AHEAD. ) ;
#20 = CALENDAR_DATE ( 2021, 25, 2 ) ;
#21 = PERSON_AND_ORGANIZATION_ROLE ( 'creator' ) ;
#22 = AXIS2_PLACEMENT_3D ( 'NONE', #97, #95, #63 ) ;
#23 = ORIENTED_EDGE ( 'NONE', *, *, #24, .F. ) ;
#24 = EDGE_CURVE ( 'NONE', #106, #45, #172, .T. ) ;
#25 = ORIENTED_EDGE ( 'NONE', *, *, #92, .F. ) ;
#26 = EDGE_LOOP ( 'NONE', ( #121, #46, #91, #108 ) ) ;
#27 = CC_DESIGN_DATE_AND_TIME_ASSIGNMENT ( #147, #112, ( #159 ) ) ;
#28 = VECTOR ( 'NONE', #138, 1000.000000000000000 ) ;
#29 = DIRECTION ( 'NONE',  ( -0.000000000000000000, -0.000000000000000000, -1.000000000000000000 ) ) ;
#30 = SPHERICAL_SURFACE ( 'NONE', #142, 900.0000000000000000 ) ;
#31 = DIRECTION ( 'NONE',  ( -0.000000000000000000, -0.000000000000000000, -1.000000000000000000 ) ) ;
#32 = CARTESIAN_POINT ( 'NONE',  ( 12.69999999999999929, 1.555301434917138433E-15, 0.000000000000000000 ) ) ;
#33 = DIRECTION ( 'NONE',  ( 0.000000000000000000, 0.000000000000000000, 1.000000000000000000 ) ) ;
#34 = APPROVAL_STATUS ( 'not_yet_approved' ) ;
#35 = ADVANCED_FACE ( 'NONE', ( #153 ), #30, .F. ) ;
#36 = CYLINDRICAL_SURFACE ( 'NONE', #176, 12.69999999999999929 ) ;
#37 = AXIS2_PLACEMENT_3D ( 'NONE', #127, #168, #15 ) ;
#38 = APPROVAL_ROLE ( '' ) ;
#39 = LOCAL_TIME ( 13, 53, 20.00000000000000000, #19 ) ;
#40 = SHAPE_DEFINITION_REPRESENTATION ( #174, #135 ) ;
#41 = APPROVAL_DATE_TIME ( #8, #11 ) ;
#42 = ADVANCED_FACE ( 'NONE', ( #180 ), #139, .F. ) ;
#43 = CARTESIAN_POINT ( 'NONE',  ( 1.127570259384924611E-13, 0.000000000000000000, 6.000000000000005329 ) ) ;
#44 = EDGE_LOOP ( 'NONE', ( #178, #25 ) ) ;
#45 = VERTEX_POINT ( 'NONE', #13 ) ;
#46 = ORIENTED_EDGE ( 'NONE', *, *, #158, .T. ) ;
#47 = FACE_OUTER_BOUND ( 'NONE', #118, .T. ) ;
#48 = CC_DESIGN_APPROVAL ( #11, ( #58 ) ) ;
#49 =( LENGTH_UNIT ( ) NAMED_UNIT ( * ) SI_UNIT ( .MILLI., .METRE. ) );
#50 = DIRECTION ( 'NONE',  ( -1.000000000000000000, 0.000000000000000000, 0.000000000000000000 ) ) ;
#51 = ADVANCED_FACE ( 'NONE', ( #12 ), #166, .T. ) ;
#52 = DIRECTION ( 'NONE',  ( 0.000000000000000000, 0.000000000000000000, 1.000000000000000000 ) ) ;
#53 = APPLICATION_PROTOCOL_DEFINITION ( 'international standard', 'config_control_design', 1994, #125 ) ;
#54 = APPROVAL_DATE_TIME ( #186, #71 ) ;
#55 = APPLICATION_PROTOCOL_DEFINITION ( 'international standard', 'config_control_design', 1994, #187 ) ;
#56 = CC_DESIGN_PERSON_AND_ORGANIZATION_ASSIGNMENT ( #175, #21, ( #18 ) ) ;
#57 = PERSON_AND_ORGANIZATION ( #191, #154 ) ;
#58 = PRODUCT_DEFINITION_FORMATION_WITH_SPECIFIED_SOURCE ( 'ANY', '', #131, .NOT_KNOWN. ) ;
#59 = CC_DESIGN_APPROVAL ( #71, ( #18 ) ) ;
#60 = ORIENTED_EDGE ( 'NONE', *, *, #116, .T. ) ;
#61 = VERTEX_POINT ( 'NONE', #32 ) ;
#62 = CARTESIAN_POINT ( 'NONE',  ( 1.678661319001233535E-13, 0.000000000000000000, 5.910389983358355082 ) ) ;
#63 = DIRECTION ( 'NONE',  ( -1.000000000000000000, 0.000000000000000000, 0.000000000000000000 ) ) ;
#64 = CARTESIAN_POINT ( 'NONE',  ( 1.127570259384924611E-13, 0.000000000000000000, 905.9103899833584137 ) ) ;
#65 = CARTESIAN_POINT ( 'NONE',  ( 0.000000000000000000, 0.000000000000000000, 6.000000000000000000 ) ) ;
#66 = COORDINATED_UNIVERSAL_TIME_OFFSET ( 2, 0, .AHEAD. ) ;
#67 = PERSON_AND_ORGANIZATION_ROLE ( 'design_supplier' ) ;
#68 = MECHANICAL_CONTEXT ( 'NONE', #125, 'mechanical' ) ;
#69 = PRODUCT_RELATED_PRODUCT_CATEGORY ( 'detail', '', ( #131 ) ) ;
#70 = COORDINATED_UNIVERSAL_TIME_OFFSET ( 2, 0, .AHEAD. ) ;
#71 = APPROVAL ( #189, 'UNSPECIFIED' ) ;
#72 = APPROVAL_PERSON_ORGANIZATION ( #129, #71, #38 ) ;
#73 = PERSON_AND_ORGANIZATION ( #191, #154 ) ;
#74 = LOCAL_TIME ( 13, 53, 20.00000000000000000, #66 ) ;
#75 = CC_DESIGN_PERSON_AND_ORGANIZATION_ASSIGNMENT ( #156, #173, ( #131 ) ) ;
#76 = ORIENTED_EDGE ( 'NONE', *, *, #107, .T. ) ;
#77 = AXIS2_PLACEMENT_3D ( 'NONE', #198, #140, #109 ) ;
#78 = CARTESIAN_POINT ( 'NONE',  ( -12.69999999999999929, 0.000000000000000000, 0.000000000000000000 ) ) ;
#79 = CARTESIAN_POINT ( 'NONE',  ( 1.127570259384924611E-13, 0.000000000000000000, 905.9103899833584137 ) ) ;
#80 = CC_DESIGN_APPROVAL ( #177, ( #159 ) ) ;
#81 = CARTESIAN_POINT ( 'NONE',  ( 1.127570259384924611E-13, 0.000000000000000000, 905.9103899833584137 ) ) ;
#82 = PERSON_AND_ORGANIZATION_ROLE ( 'classification_officer' ) ;
#83 = DESIGN_CONTEXT ( 'detailed design', #187, 'design' ) ;
#84 = DIRECTION ( 'NONE',  ( 1.000000000000000000, 0.000000000000000000, 0.000000000000000000 ) ) ;
#85 = APPROVAL_DATE_TIME ( #145, #177 ) ;
#86 = APPROVAL_STATUS ( 'not_yet_approved' ) ;
#87 = LOCAL_TIME ( 13, 53, 20.00000000000000000, #70 ) ;
#88 = EDGE_CURVE ( 'NONE', #90, #61, #167, .T. ) ;
#89 = PERSON_AND_ORGANIZATION ( #191, #154 ) ;
#90 = VERTEX_POINT ( 'NONE', #78 ) ;
#91 = ORIENTED_EDGE ( 'NONE', *, *, #92, .T. ) ;
#92 = EDGE_CURVE ( 'NONE', #61, #90, #98, .T. ) ;
#93 = CIRCLE ( 'NONE', #2, 900.0000000000000000 ) ;
#94 = DIRECTION ( 'NONE',  ( 1.000000000000000000, 0.000000000000000000, 0.000000000000000000 ) ) ;
#95 = DIRECTION ( 'NONE',  ( -0.000000000000000000, -0.000000000000000000, -1.000000000000000000 ) ) ;
#96 = UNCERTAINTY_MEASURE_WITH_UNIT (LENGTH_MEASURE( 1.000000000000000082E-05 ), #49, 'distance_accuracy_value', 'NONE');
#97 = CARTESIAN_POINT ( 'NONE',  ( 0.000000000000000000, 0.000000000000000000, 6.000000000000000000 ) ) ;
#98 = CIRCLE ( 'NONE', #182, 12.69999999999999929 ) ;
#99 = DIRECTION ( 'NONE',  ( 1.000000000000000000, 1.224646799147353207E-16, 0.000000000000000000 ) ) ;
#100 = COORDINATED_UNIVERSAL_TIME_OFFSET ( 2, 0, .AHEAD. ) ;
#101 = CC_DESIGN_DATE_AND_TIME_ASSIGNMENT ( #132, #102, ( #18 ) ) ;
#102 = DATE_TIME_ROLE ( 'creation_date' ) ;
#103 = CIRCLE ( 'NONE', #199, 12.69999999999486562 ) ;
#104 = ADVANCED_FACE ( 'NONE', ( #183 ), #36, .T. ) ;
#105 = ORIENTED_EDGE ( 'NONE', *, *, #158, .F. ) ;
#106 = VERTEX_POINT ( 'NONE', #123 ) ;
#107 = EDGE_CURVE ( 'NONE', #45, #196, #93, .T. ) ;
#108 = ORIENTED_EDGE ( 'NONE', *, *, #141, .F. ) ;
#109 = DIRECTION ( 'NONE',  ( 1.000000000000000000, 0.000000000000000000, 0.000000000000000000 ) ) ;
#110 = APPROVAL_PERSON_ORGANIZATION ( #157, #11, #6 ) ;
#111 = CARTESIAN_POINT ( 'NONE',  ( 0.000000000000000000, 0.000000000000000000, 0.000000000000000000 ) ) ;
#112 = DATE_TIME_ROLE ( 'classification_date' ) ;
#113 = DIRECTION ( 'NONE',  ( 0.000000000000000000, -1.000000000000000000, -0.000000000000000000 ) ) ;
#114 = CARTESIAN_POINT ( 'NONE',  ( -12.69999999999999929, 0.000000000000000000, 6.000000000000000000 ) ) ;
#115 = MANIFOLD_SOLID_BREP ( 'Cut-Revolve1', #117 ) ;
#116 = EDGE_CURVE ( 'NONE', #106, #196, #136, .T. ) ;
#117 = CLOSED_SHELL ( 'NONE', ( #160, #51, #104, #42, #35 ) ) ;
#118 = EDGE_LOOP ( 'NONE', ( #163, #76, #197 ) ) ;
#119 = DIRECTION ( 'NONE',  ( 1.000000000000000000, 0.000000000000000000, 0.000000000000000000 ) ) ;
#120 = CC_DESIGN_PERSON_AND_ORGANIZATION_ASSIGNMENT ( #73, #185, ( #58 ) ) ;
#121 = ORIENTED_EDGE ( 'NONE', *, *, #188, .T. ) ;
#122 =( NAMED_UNIT ( * ) PLANE_ANGLE_UNIT ( ) SI_UNIT ( $, .RADIAN. ) );
#123 = CARTESIAN_POINT ( 'NONE',  ( 12.69999999999497931, 1.555301434916831171E-15, 6.000000000000005329 ) ) ;
#124 = DIRECTION ( 'NONE',  ( 0.000000000000000000, -1.000000000000000000, -0.000000000000000000 ) ) ;
#125 = APPLICATION_CONTEXT ( 'configuration controlled 3d designs of mechanical parts and assemblies' ) ;
#126 = AXIS2_PLACEMENT_3D ( 'NONE', #79, #113, #155 ) ;
#127 = CARTESIAN_POINT ( 'NONE',  ( 1.127570259384924611E-13, 0.000000000000000000, 905.9103899833584137 ) ) ;
#128 = LINE ( 'NONE', #114, #146 ) ;
#129 = PERSON_AND_ORGANIZATION ( #191, #154 ) ;
#130 = CARTESIAN_POINT ( 'NONE',  ( 0.000000000000000000, 0.000000000000000000, 0.000000000000000000 ) ) ;
#131 = PRODUCT ( '010-1217E_UVFS_PCV_window', '010-1217E_UVFS_PCV_window', '', ( #68 ) ) ;
#132 = DATE_AND_TIME ( #143, #87 ) ;
#133 = COORDINATED_UNIVERSAL_TIME_OFFSET ( 2, 0, .AHEAD. ) ;
#134 = AXIS2_PLACEMENT_3D ( 'NONE', #43, #29, #119 ) ;
#135 = ADVANCED_BREP_SHAPE_REPRESENTATION ( '010-1217E_UVFS_PCV_window', ( #115, #7 ), #16 ) ;
#136 = CIRCLE ( 'NONE', #37, 900.0000000000000000 ) ;
#137 = DIRECTION ( 'NONE',  ( -0.000000000000000000, -0.000000000000000000, -1.000000000000000000 ) ) ;
#138 = DIRECTION ( 'NONE',  ( -0.000000000000000000, -0.000000000000000000, -1.000000000000000000 ) ) ;
#139 = PLANE ( 'NONE',  #10 ) ;
#140 = DIRECTION ( 'NONE',  ( 0.000000000000000000, 0.000000000000000000, 1.000000000000000000 ) ) ;
#141 = EDGE_CURVE ( 'NONE', #45, #90, #128, .T. ) ;
#142 = AXIS2_PLACEMENT_3D ( 'NONE', #81, #124, #181 ) ;
#143 = CALENDAR_DATE ( 2021, 25, 2 ) ;
#144 = CC_DESIGN_PERSON_AND_ORGANIZATION_ASSIGNMENT ( #57, #82, ( #159 ) ) ;
#145 = DATE_AND_TIME ( #161, #164 ) ;
#146 = VECTOR ( 'NONE', #171, 1000.000000000000000 ) ;
#147 = DATE_AND_TIME ( #169, #39 ) ;
#148 = ORIENTED_EDGE ( 'NONE', *, *, #107, .F. ) ;
#149 = APPROVAL_PERSON_ORGANIZATION ( #89, #177, #192 ) ;
#150 =( NAMED_UNIT ( * ) SI_UNIT ( $, .STERADIAN. ) SOLID_ANGLE_UNIT ( ) );
#151 = CC_DESIGN_PERSON_AND_ORGANIZATION_ASSIGNMENT ( #170, #67, ( #58 ) ) ;
#152 = LINE ( 'NONE', #14, #28 ) ;
#153 = FACE_OUTER_BOUND ( 'NONE', #195, .T. ) ;
#154 = ORGANIZATION ( 'UNSPECIFIED', 'UNSPECIFIED', '' ) ;
#155 = DIRECTION ( 'NONE',  ( 1.000000000000000000, 0.000000000000000000, 0.000000000000000000 ) ) ;
#156 = PERSON_AND_ORGANIZATION ( #191, #154 ) ;
#157 = PERSON_AND_ORGANIZATION ( #191, #154 ) ;
#158 = EDGE_CURVE ( 'NONE', #106, #61, #152, .T. ) ;
#159 = SECURITY_CLASSIFICATION ( '', '', #4 ) ;
#160 = ADVANCED_FACE ( 'NONE', ( #47 ), #201, .F. ) ;
#161 = CALENDAR_DATE ( 2021, 25, 2 ) ;
#162 = ORIENTED_EDGE ( 'NONE', *, *, #88, .T. ) ;
#163 = ORIENTED_EDGE ( 'NONE', *, *, #188, .F. ) ;
#164 = LOCAL_TIME ( 13, 53, 20.00000000000000000, #133 ) ;
#165 = ORIENTED_EDGE ( 'NONE', *, *, #24, .T. ) ;
#166 = CYLINDRICAL_SURFACE ( 'NONE', #22, 12.69999999999999929 ) ;
#167 = CIRCLE ( 'NONE', #77, 12.69999999999999929 ) ;
#168 = DIRECTION ( 'NONE',  ( 0.000000000000000000, 1.000000000000000000, -0.000000000000000000 ) ) ;
#169 = CALENDAR_DATE ( 2021, 25, 2 ) ;
#170 = PERSON_AND_ORGANIZATION ( #191, #154 ) ;
#171 = DIRECTION ( 'NONE',  ( -0.000000000000000000, -0.000000000000000000, -1.000000000000000000 ) ) ;
#172 = CIRCLE ( 'NONE', #134, 12.69999999999486562 ) ;
#173 = PERSON_AND_ORGANIZATION_ROLE ( 'design_owner' ) ;
#174 = PRODUCT_DEFINITION_SHAPE ( 'NONE', 'NONE',  #18 ) ;
#175 = PERSON_AND_ORGANIZATION ( #191, #154 ) ;
#176 = AXIS2_PLACEMENT_3D ( 'NONE', #65, #137, #50 ) ;
#177 = APPROVAL ( #34, 'UNSPECIFIED' ) ;
#178 = ORIENTED_EDGE ( 'NONE', *, *, #88, .F. ) ;
#179 = LOCAL_TIME ( 13, 53, 20.00000000000000000, #100 ) ;
#180 = FACE_OUTER_BOUND ( 'NONE', #44, .T. ) ;
#181 = DIRECTION ( 'NONE',  ( 1.000000000000000000, 0.000000000000000000, 0.000000000000000000 ) ) ;
#182 = AXIS2_PLACEMENT_3D ( 'NONE', #1, #52, #94 ) ;
#183 = FACE_OUTER_BOUND ( 'NONE', #9, .T. ) ;
#184 = DIRECTION ( 'NONE',  ( 1.000000000000000000, 0.000000000000000000, -0.000000000000000000 ) ) ;
#185 = PERSON_AND_ORGANIZATION_ROLE ( 'creator' ) ;
#186 = DATE_AND_TIME ( #20, #179 ) ;
#187 = APPLICATION_CONTEXT ( 'configuration controlled 3d designs of mechanical parts and assemblies' ) ;
#188 = EDGE_CURVE ( 'NONE', #45, #106, #103, .T. ) ;
#189 = APPROVAL_STATUS ( 'not_yet_approved' ) ;
#190 = CALENDAR_DATE ( 2021, 25, 2 ) ;
#191 = PERSON ( 'UNSPECIFIED', 'UNSPECIFIED', 'UNSPECIFIED', ('UNSPECIFIED'), ('UNSPECIFIED'), ('UNSPECIFIED') ) ;
#192 = APPROVAL_ROLE ( '' ) ;
#193 = CC_DESIGN_SECURITY_CLASSIFICATION ( #159, ( #58 ) ) ;
#194 = ORIENTED_EDGE ( 'NONE', *, *, #141, .T. ) ;
#195 = EDGE_LOOP ( 'NONE', ( #148, #23, #60 ) ) ;
#196 = VERTEX_POINT ( 'NONE', #62 ) ;
#197 = ORIENTED_EDGE ( 'NONE', *, *, #116, .F. ) ;
#198 = CARTESIAN_POINT ( 'NONE',  ( 0.000000000000000000, 0.000000000000000000, 0.000000000000000000 ) ) ;
#199 = AXIS2_PLACEMENT_3D ( 'NONE', #200, #31, #17 ) ;
#200 = CARTESIAN_POINT ( 'NONE',  ( 1.127570259384924611E-13, 0.000000000000000000, 6.000000000000005329 ) ) ;
#201 = SPHERICAL_SURFACE ( 'NONE', #126, 900.0000000000000000 ) ;
ENDSEC;
END-ISO-10303-21;
