ISO-10303-21;
HEADER;
FILE_DESCRIPTION (( 'STEP AP203' ),
    '1' );
FILE_NAME ('010-1216E_UVFS_PCV_window.STEP',
    '2021-02-25T11:53:01',
    ( '' ),
    ( '' ),
    'SwSTEP 2.0',
    'SolidWorks 2019',
    '' );
FILE_SCHEMA (( 'CONFIG_CONTROL_DESIGN' ));
ENDSEC;

DATA;
#1 = CARTESIAN_POINT ( 'NONE',  ( -12.69999999999999929, 0.000000000000000000, 6.000000000000000000 ) ) ;
#2 = DIRECTION ( 'NONE',  ( -0.000000000000000000, -0.000000000000000000, -1.000000000000000000 ) ) ;
#3 = CARTESIAN_POINT ( 'NONE',  ( 0.000000000000000000, 0.000000000000000000, 0.000000000000000000 ) ) ;
#4 = DATE_AND_TIME ( #26, #163 ) ;
#5 = DIRECTION ( 'NONE',  ( -1.000000000000000000, 0.000000000000000000, 0.000000000000000000 ) ) ;
#6 = PERSON ( 'UNSPECIFIED', 'UNSPECIFIED', 'UNSPECIFIED', ('UNSPECIFIED'), ('UNSPECIFIED'), ('UNSPECIFIED') ) ;
#7 = PERSON_AND_ORGANIZATION_ROLE ( 'creator' ) ;
#8 = LOCAL_TIME ( 13, 53, 1.000000000000000000, #20 ) ;
#9 = APPROVAL_STATUS ( 'not_yet_approved' ) ;
#10 = DIRECTION ( 'NONE',  ( 1.000000000000000000, 0.000000000000000000, 0.000000000000000000 ) ) ;
#11 = AXIS2_PLACEMENT_3D ( 'NONE', #190, #60, #172 ) ;
#12 = EDGE_CURVE ( 'NONE', #178, #102, #126, .T. ) ;
#13 = ORIENTED_EDGE ( 'NONE', *, *, #53, .F. ) ;
#14 = APPROVAL ( #157, 'UNSPECIFIED' ) ;
#15 = LOCAL_TIME ( 13, 53, 1.000000000000000000, #50 ) ;
#16 = ADVANCED_FACE ( 'NONE', ( #47 ), #92, .F. ) ;
#17 = CARTESIAN_POINT ( 'NONE',  ( 12.69999999999999929, 1.555301434917138433E-15, 0.000000000000000000 ) ) ;
#18 = EDGE_LOOP ( 'NONE', ( #199, #117, #33, #28 ) ) ;
#19 = ADVANCED_FACE ( 'NONE', ( #99 ), #43, .T. ) ;
#20 = COORDINATED_UNIVERSAL_TIME_OFFSET ( 2, 0, .AHEAD. ) ;
#21 = DIRECTION ( 'NONE',  ( -0.000000000000000000, -0.000000000000000000, -1.000000000000000000 ) ) ;
#22 = SECURITY_CLASSIFICATION_LEVEL ( 'unclassified' ) ;
#23 = APPROVAL_DATE_TIME ( #4, #138 ) ;
#24 = APPROVAL_PERSON_ORGANIZATION ( #186, #138, #112 ) ;
#25 = DIRECTION ( 'NONE',  ( 0.000000000000000000, 0.000000000000000000, 1.000000000000000000 ) ) ;
#26 = CALENDAR_DATE ( 2021, 25, 2 ) ;
#27 = MECHANICAL_CONTEXT ( 'NONE', #143, 'mechanical' ) ;
#28 = ORIENTED_EDGE ( 'NONE', *, *, #166, .T. ) ;
#29 = CC_DESIGN_SECURITY_CLASSIFICATION ( #141, ( #35 ) ) ;
#30 = APPROVAL ( #9, 'UNSPECIFIED' ) ;
#31 = ORIENTED_EDGE ( 'NONE', *, *, #12, .F. ) ;
#32 = CYLINDRICAL_SURFACE ( 'NONE', #189, 12.69999999999999929 ) ;
#33 = ORIENTED_EDGE ( 'NONE', *, *, #12, .T. ) ;
#34 = PRODUCT_DEFINITION_SHAPE ( 'NONE', 'NONE',  #200 ) ;
#35 = PRODUCT_DEFINITION_FORMATION_WITH_SPECIFIED_SOURCE ( 'ANY', '', #63, .NOT_KNOWN. ) ;
#36 = APPLICATION_PROTOCOL_DEFINITION ( 'international standard', 'config_control_design', 1994, #180 ) ;
#37 = CARTESIAN_POINT ( 'NONE',  ( 0.000000000000000000, 0.000000000000000000, 6.000000000000000000 ) ) ;
#38 = DIRECTION ( 'NONE',  ( 1.000000000000000000, 0.000000000000000000, -0.000000000000000000 ) ) ;
#39 = COORDINATED_UNIVERSAL_TIME_OFFSET ( 2, 0, .AHEAD. ) ;
#40 = CALENDAR_DATE ( 2021, 25, 2 ) ;
#41 = ORIENTED_EDGE ( 'NONE', *, *, #61, .F. ) ;
#42 = VERTEX_POINT ( 'NONE', #17 ) ;
#43 = CYLINDRICAL_SURFACE ( 'NONE', #67, 12.69999999999999929 ) ;
#44 = CARTESIAN_POINT ( 'NONE',  ( 9.887923813067800438E-14, 0.000000000000000000, 805.8991873980120317 ) ) ;
#45 = CC_DESIGN_PERSON_AND_ORGANIZATION_ASSIGNMENT ( #65, #51, ( #35 ) ) ;
#46 = CARTESIAN_POINT ( 'NONE',  ( 0.000000000000000000, 0.000000000000000000, 0.000000000000000000 ) ) ;
#47 = FACE_OUTER_BOUND ( 'NONE', #184, .T. ) ;
#48 = SHAPE_DEFINITION_REPRESENTATION ( #34, #96 ) ;
#49 = DIRECTION ( 'NONE',  ( -0.000000000000000000, -0.000000000000000000, -1.000000000000000000 ) ) ;
#50 = COORDINATED_UNIVERSAL_TIME_OFFSET ( 2, 0, .AHEAD. ) ;
#51 = PERSON_AND_ORGANIZATION_ROLE ( 'design_supplier' ) ;
#52 = CIRCLE ( 'NONE', #118, 800.0000000000001137 ) ;
#53 = EDGE_CURVE ( 'NONE', #178, #196, #57, .T. ) ;
#54 = CLOSED_SHELL ( 'NONE', ( #90, #19, #120, #154, #16 ) ) ;
#55 = ORIENTED_EDGE ( 'NONE', *, *, #168, .F. ) ;
#56 = PRODUCT_RELATED_PRODUCT_CATEGORY ( 'detail', '', ( #63 ) ) ;
#57 = CIRCLE ( 'NONE', #78, 12.70000000000797868 ) ;
#58 = EDGE_CURVE ( 'NONE', #178, #107, #167, .T. ) ;
#59 = CARTESIAN_POINT ( 'NONE',  ( 12.69999999999999929, 1.555301434917138433E-15, 6.000000000000000000 ) ) ;
#60 = DIRECTION ( 'NONE',  ( 0.000000000000000000, -1.000000000000000000, -0.000000000000000000 ) ) ;
#61 = EDGE_CURVE ( 'NONE', #196, #178, #134, .T. ) ;
#62 = DIRECTION ( 'NONE',  ( 1.000000000000000000, 0.000000000000000000, 0.000000000000000000 ) ) ;
#63 = PRODUCT ( '010-1216E_UVFS_PCV_window', '010-1216E_UVFS_PCV_window', '', ( #27 ) ) ;
#64 = DIRECTION ( 'NONE',  ( 0.000000000000000000, 0.000000000000000000, 1.000000000000000000 ) ) ;
#65 = PERSON_AND_ORGANIZATION ( #6, #136 ) ;
#66 = FACE_OUTER_BOUND ( 'NONE', #74, .T. ) ;
#67 = AXIS2_PLACEMENT_3D ( 'NONE', #37, #49, #97 ) ;
#68 = EDGE_CURVE ( 'NONE', #196, #42, #111, .T. ) ;
#69 =( LENGTH_UNIT ( ) NAMED_UNIT ( * ) SI_UNIT ( .MILLI., .METRE. ) );
#70 = PERSON_AND_ORGANIZATION ( #6, #136 ) ;
#71 = MANIFOLD_SOLID_BREP ( 'Cut-Revolve1', #54 ) ;
#72 = AXIS2_PLACEMENT_3D ( 'NONE', #3, #64, #128 ) ;
#73 = ORIENTED_EDGE ( 'NONE', *, *, #53, .T. ) ;
#74 = EDGE_LOOP ( 'NONE', ( #87, #55 ) ) ;
#75 = CC_DESIGN_APPROVAL ( #138, ( #35 ) ) ;
#76 = FACE_OUTER_BOUND ( 'NONE', #18, .T. ) ;
#77 = CARTESIAN_POINT ( 'NONE',  ( -12.70000000000788276, 0.000000000000000000, 6.000000000000005329 ) ) ;
#78 = AXIS2_PLACEMENT_3D ( 'NONE', #174, #142, #62 ) ;
#79 = DIRECTION ( 'NONE',  ( 1.224646799147353207E-16, -1.000000000000000000, 0.000000000000000000 ) ) ;
#80 = APPROVAL_DATE_TIME ( #100, #14 ) ;
#81 = DIRECTION ( 'NONE',  ( 0.000000000000000000, -1.000000000000000000, -0.000000000000000000 ) ) ;
#82 = CALENDAR_DATE ( 2021, 25, 2 ) ;
#83 =( GEOMETRIC_REPRESENTATION_CONTEXT ( 3 ) GLOBAL_UNCERTAINTY_ASSIGNED_CONTEXT ( ( #89 ) ) GLOBAL_UNIT_ASSIGNED_CONTEXT ( ( #69, #148, #113 ) ) REPRESENTATION_CONTEXT ( 'NONE', 'WORKASPACE' ) );
#84 = DATE_TIME_ROLE ( 'creation_date' ) ;
#85 = PERSON_AND_ORGANIZATION ( #6, #136 ) ;
#86 = PERSON_AND_ORGANIZATION ( #6, #136 ) ;
#87 = ORIENTED_EDGE ( 'NONE', *, *, #166, .F. ) ;
#88 = AXIS2_PLACEMENT_3D ( 'NONE', #44, #79, #109 ) ;
#89 = UNCERTAINTY_MEASURE_WITH_UNIT (LENGTH_MEASURE( 1.000000000000000082E-05 ), #69, 'distance_accuracy_value', 'NONE');
#90 = ADVANCED_FACE ( 'NONE', ( #175 ), #93, .F. ) ;
#91 = ORIENTED_EDGE ( 'NONE', *, *, #181, .F. ) ;
#92 = SPHERICAL_SURFACE ( 'NONE', #11, 800.0000000000000000 ) ;
#93 = SPHERICAL_SURFACE ( 'NONE', #171, 800.0000000000000000 ) ;
#94 = DIRECTION ( 'NONE',  ( 0.000000000000000000, 0.000000000000000000, 1.000000000000000000 ) ) ;
#95 = PERSON_AND_ORGANIZATION_ROLE ( 'design_owner' ) ;
#96 = ADVANCED_BREP_SHAPE_REPRESENTATION ( '010-1216E_UVFS_PCV_window', ( #71, #152 ), #83 ) ;
#97 = DIRECTION ( 'NONE',  ( -1.000000000000000000, 0.000000000000000000, 0.000000000000000000 ) ) ;
#98 = DATE_AND_TIME ( #40, #173 ) ;
#99 = FACE_OUTER_BOUND ( 'NONE', #119, .T. ) ;
#100 = DATE_AND_TIME ( #159, #8 ) ;
#101 = APPROVAL_DATE_TIME ( #98, #30 ) ;
#102 = VERTEX_POINT ( 'NONE', #144 ) ;
#103 = AXIS2_PLACEMENT_3D ( 'NONE', #187, #146, #125 ) ;
#104 = VECTOR ( 'NONE', #160, 1000.000000000000000 ) ;
#105 = APPROVAL_PERSON_ORGANIZATION ( #133, #14, #193 ) ;
#106 = CARTESIAN_POINT ( 'NONE',  ( 9.887923813067800438E-14, 0.000000000000000000, 805.8991873980120317 ) ) ;
#107 = VERTEX_POINT ( 'NONE', #158 ) ;
#108 = CC_DESIGN_PERSON_AND_ORGANIZATION_ASSIGNMENT ( #70, #95, ( #63 ) ) ;
#109 = DIRECTION ( 'NONE',  ( 1.000000000000000000, 1.224646799147353207E-16, 0.000000000000000000 ) ) ;
#110 = CC_DESIGN_APPROVAL ( #30, ( #141 ) ) ;
#111 = LINE ( 'NONE', #59, #104 ) ;
#112 = APPROVAL_ROLE ( '' ) ;
#113 =( NAMED_UNIT ( * ) SI_UNIT ( $, .STERADIAN. ) SOLID_ANGLE_UNIT ( ) );
#114 = DATE_TIME_ROLE ( 'classification_date' ) ;
#115 = PERSON_AND_ORGANIZATION ( #6, #136 ) ;
#116 = ORIENTED_EDGE ( 'NONE', *, *, #181, .T. ) ;
#117 = ORIENTED_EDGE ( 'NONE', *, *, #61, .T. ) ;
#118 = AXIS2_PLACEMENT_3D ( 'NONE', #140, #162, #25 ) ;
#119 = EDGE_LOOP ( 'NONE', ( #73, #179, #182, #31 ) ) ;
#120 = ADVANCED_FACE ( 'NONE', ( #76 ), #32, .T. ) ;
#121 = DESIGN_CONTEXT ( 'detailed design', #180, 'design' ) ;
#122 = AXIS2_PLACEMENT_3D ( 'NONE', #139, #185, #153 ) ;
#123 = CC_DESIGN_PERSON_AND_ORGANIZATION_ASSIGNMENT ( #85, #161, ( #141 ) ) ;
#124 = DIRECTION ( 'NONE',  ( 1.000000000000000000, 0.000000000000000000, 0.000000000000000000 ) ) ;
#125 = DIRECTION ( 'NONE',  ( 1.000000000000000000, 0.000000000000000000, 0.000000000000000000 ) ) ;
#126 = LINE ( 'NONE', #1, #156 ) ;
#127 = CC_DESIGN_DATE_AND_TIME_ASSIGNMENT ( #150, #114, ( #141 ) ) ;
#128 = DIRECTION ( 'NONE',  ( 1.000000000000000000, 0.000000000000000000, 0.000000000000000000 ) ) ;
#129 = PERSON_AND_ORGANIZATION ( #6, #136 ) ;
#130 = PLANE ( 'NONE',  #194 ) ;
#131 = COORDINATED_UNIVERSAL_TIME_OFFSET ( 2, 0, .AHEAD. ) ;
#132 = CALENDAR_DATE ( 2021, 25, 2 ) ;
#133 = PERSON_AND_ORGANIZATION ( #6, #136 ) ;
#134 = CIRCLE ( 'NONE', #103, 12.70000000000797868 ) ;
#135 = ORIENTED_EDGE ( 'NONE', *, *, #58, .F. ) ;
#136 = ORGANIZATION ( 'UNSPECIFIED', 'UNSPECIFIED', '' ) ;
#137 = CC_DESIGN_PERSON_AND_ORGANIZATION_ASSIGNMENT ( #115, #188, ( #35 ) ) ;
#138 = APPROVAL ( #165, 'UNSPECIFIED' ) ;
#139 = CARTESIAN_POINT ( 'NONE',  ( 0.000000000000000000, 0.000000000000000000, 0.000000000000000000 ) ) ;
#140 = CARTESIAN_POINT ( 'NONE',  ( 9.887923813067800438E-14, 0.000000000000000000, 805.8991873980120317 ) ) ;
#141 = SECURITY_CLASSIFICATION ( '', '', #22 ) ;
#142 = DIRECTION ( 'NONE',  ( -0.000000000000000000, -0.000000000000000000, -1.000000000000000000 ) ) ;
#143 = APPLICATION_CONTEXT ( 'configuration controlled 3d designs of mechanical parts and assemblies' ) ;
#144 = CARTESIAN_POINT ( 'NONE',  ( -12.69999999999999929, 0.000000000000000000, 0.000000000000000000 ) ) ;
#145 = DATE_AND_TIME ( #132, #15 ) ;
#146 = DIRECTION ( 'NONE',  ( -0.000000000000000000, -0.000000000000000000, -1.000000000000000000 ) ) ;
#147 = APPROVAL_ROLE ( '' ) ;
#148 =( NAMED_UNIT ( * ) PLANE_ANGLE_UNIT ( ) SI_UNIT ( $, .RADIAN. ) );
#149 = CC_DESIGN_DATE_AND_TIME_ASSIGNMENT ( #145, #84, ( #200 ) ) ;
#150 = DATE_AND_TIME ( #82, #201 ) ;
#151 = APPROVAL_PERSON_ORGANIZATION ( #86, #30, #147 ) ;
#152 = AXIS2_PLACEMENT_3D ( 'NONE', #195, #191, #10 ) ;
#153 = DIRECTION ( 'NONE',  ( 1.000000000000000000, 0.000000000000000000, 0.000000000000000000 ) ) ;
#154 = ADVANCED_FACE ( 'NONE', ( #66 ), #130, .F. ) ;
#155 = CARTESIAN_POINT ( 'NONE',  ( 0.000000000000000000, 0.000000000000000000, 6.000000000000000000 ) ) ;
#156 = VECTOR ( 'NONE', #2, 1000.000000000000000 ) ;
#157 = APPROVAL_STATUS ( 'not_yet_approved' ) ;
#158 = CARTESIAN_POINT ( 'NONE',  ( 1.478651100965721141E-13, 0.000000000000000000, 5.899187398011984662 ) ) ;
#159 = CALENDAR_DATE ( 2021, 25, 2 ) ;
#160 = DIRECTION ( 'NONE',  ( -0.000000000000000000, -0.000000000000000000, -1.000000000000000000 ) ) ;
#161 = PERSON_AND_ORGANIZATION_ROLE ( 'classification_officer' ) ;
#162 = DIRECTION ( 'NONE',  ( 0.000000000000000000, 1.000000000000000000, -0.000000000000000000 ) ) ;
#163 = LOCAL_TIME ( 13, 53, 1.000000000000000000, #164 ) ;
#164 = COORDINATED_UNIVERSAL_TIME_OFFSET ( 2, 0, .AHEAD. ) ;
#165 = APPROVAL_STATUS ( 'not_yet_approved' ) ;
#166 = EDGE_CURVE ( 'NONE', #102, #42, #169, .T. ) ;
#167 = CIRCLE ( 'NONE', #88, 800.0000000000000000 ) ;
#168 = EDGE_CURVE ( 'NONE', #42, #102, #183, .T. ) ;
#169 = CIRCLE ( 'NONE', #72, 12.69999999999999929 ) ;
#170 = EDGE_LOOP ( 'NONE', ( #13, #197, #91 ) ) ;
#171 = AXIS2_PLACEMENT_3D ( 'NONE', #106, #81, #124 ) ;
#172 = DIRECTION ( 'NONE',  ( 1.000000000000000000, 0.000000000000000000, 0.000000000000000000 ) ) ;
#173 = LOCAL_TIME ( 13, 53, 1.000000000000000000, #131 ) ;
#174 = CARTESIAN_POINT ( 'NONE',  ( 9.887923813067800438E-14, 0.000000000000000000, 6.000000000000005329 ) ) ;
#175 = FACE_OUTER_BOUND ( 'NONE', #170, .T. ) ;
#176 = APPLICATION_PROTOCOL_DEFINITION ( 'international standard', 'config_control_design', 1994, #143 ) ;
#177 = CC_DESIGN_PERSON_AND_ORGANIZATION_ASSIGNMENT ( #129, #7, ( #200 ) ) ;
#178 = VERTEX_POINT ( 'NONE', #77 ) ;
#179 = ORIENTED_EDGE ( 'NONE', *, *, #68, .T. ) ;
#180 = APPLICATION_CONTEXT ( 'configuration controlled 3d designs of mechanical parts and assemblies' ) ;
#181 = EDGE_CURVE ( 'NONE', #196, #107, #52, .T. ) ;
#182 = ORIENTED_EDGE ( 'NONE', *, *, #168, .T. ) ;
#183 = CIRCLE ( 'NONE', #122, 12.69999999999999929 ) ;
#184 = EDGE_LOOP ( 'NONE', ( #135, #41, #116 ) ) ;
#185 = DIRECTION ( 'NONE',  ( 0.000000000000000000, 0.000000000000000000, 1.000000000000000000 ) ) ;
#186 = PERSON_AND_ORGANIZATION ( #6, #136 ) ;
#187 = CARTESIAN_POINT ( 'NONE',  ( 9.887923813067800438E-14, 0.000000000000000000, 6.000000000000005329 ) ) ;
#188 = PERSON_AND_ORGANIZATION_ROLE ( 'creator' ) ;
#189 = AXIS2_PLACEMENT_3D ( 'NONE', #155, #21, #5 ) ;
#190 = CARTESIAN_POINT ( 'NONE',  ( 9.887923813067800438E-14, 0.000000000000000000, 805.8991873980120317 ) ) ;
#191 = DIRECTION ( 'NONE',  ( 0.000000000000000000, 0.000000000000000000, 1.000000000000000000 ) ) ;
#192 = CARTESIAN_POINT ( 'NONE',  ( 12.70000000000807816, 1.555301434918127861E-15, 6.000000000000005329 ) ) ;
#193 = APPROVAL_ROLE ( '' ) ;
#194 = AXIS2_PLACEMENT_3D ( 'NONE', #46, #94, #38 ) ;
#195 = CARTESIAN_POINT ( 'NONE',  ( 0.000000000000000000, 0.000000000000000000, 0.000000000000000000 ) ) ;
#196 = VERTEX_POINT ( 'NONE', #192 ) ;
#197 = ORIENTED_EDGE ( 'NONE', *, *, #58, .T. ) ;
#198 = CC_DESIGN_APPROVAL ( #14, ( #200 ) ) ;
#199 = ORIENTED_EDGE ( 'NONE', *, *, #68, .F. ) ;
#200 = PRODUCT_DEFINITION ( 'UNKNOWN', '', #35, #121 ) ;
#201 = LOCAL_TIME ( 13, 53, 1.000000000000000000, #39 ) ;
ENDSEC;
END-ISO-10303-21;
