ISO-10303-21;
HEADER;
FILE_DESCRIPTION (( 'STEP AP203' ),
    '1' );
FILE_NAME ('010-1215E_UVFS_PCV_window.STEP',
    '2021-02-25T11:52:43',
    ( '' ),
    ( '' ),
    'SwSTEP 2.0',
    'SolidWorks 2019',
    '' );
FILE_SCHEMA (( 'CONFIG_CONTROL_DESIGN' ));
ENDSEC;

DATA;
#1 = VERTEX_POINT ( 'NONE', #61 ) ;
#2 = CALENDAR_DATE ( 2021, 25, 2 ) ;
#3 = VERTEX_POINT ( 'NONE', #63 ) ;
#4 = PERSON_AND_ORGANIZATION ( #166, #180 ) ;
#5 = APPROVAL_ROLE ( '' ) ;
#6 = LOCAL_TIME ( 13, 52, 43.00000000000000000, #161 ) ;
#7 = CIRCLE ( 'NONE', #182, 12.69999999999923546 ) ;
#8 = ADVANCED_BREP_SHAPE_REPRESENTATION ( '010-1215E_UVFS_PCV_window', ( #147, #58 ), #30 ) ;
#9 = CYLINDRICAL_SURFACE ( 'NONE', #126, 12.69999999999999929 ) ;
#10 = DIRECTION ( 'NONE',  ( 0.000000000000000000, -1.000000000000000000, -0.000000000000000000 ) ) ;
#11 = CYLINDRICAL_SURFACE ( 'NONE', #162, 12.69999999999999929 ) ;
#12 = APPROVAL ( #77, 'UNSPECIFIED' ) ;
#13 = LOCAL_TIME ( 13, 52, 43.00000000000000000, #120 ) ;
#14 = EDGE_LOOP ( 'NONE', ( #34, #158, #138 ) ) ;
#15 = EDGE_CURVE ( 'NONE', #103, #1, #87, .T. ) ;
#16 = DIRECTION ( 'NONE',  ( 1.000000000000000000, 0.000000000000000000, 0.000000000000000000 ) ) ;
#17 = APPROVAL_DATE_TIME ( #110, #51 ) ;
#18 = ORIENTED_EDGE ( 'NONE', *, *, #178, .F. ) ;
#19 = DATE_AND_TIME ( #141, #200 ) ;
#20 = CALENDAR_DATE ( 2021, 25, 2 ) ;
#21 = CC_DESIGN_PERSON_AND_ORGANIZATION_ASSIGNMENT ( #176, #33, ( #175 ) ) ;
#22 = AXIS2_PLACEMENT_3D ( 'NONE', #198, #89, #132 ) ;
#23 = PERSON_AND_ORGANIZATION ( #166, #180 ) ;
#24 = PRODUCT_DEFINITION ( 'UNKNOWN', '', #171, #85 ) ;
#25 = APPROVAL_PERSON_ORGANIZATION ( #139, #12, #142 ) ;
#26 = CARTESIAN_POINT ( 'NONE',  ( 0.000000000000000000, 0.000000000000000000, 6.000000000000000000 ) ) ;
#27 = DIRECTION ( 'NONE',  ( 0.000000000000000000, 0.000000000000000000, 1.000000000000000000 ) ) ;
#28 = FACE_OUTER_BOUND ( 'NONE', #14, .T. ) ;
#29 = ORIENTED_EDGE ( 'NONE', *, *, #70, .T. ) ;
#30 =( GEOMETRIC_REPRESENTATION_CONTEXT ( 3 ) GLOBAL_UNCERTAINTY_ASSIGNED_CONTEXT ( ( #116 ) ) GLOBAL_UNIT_ASSIGNED_CONTEXT ( ( #67, #40, #79 ) ) REPRESENTATION_CONTEXT ( 'NONE', 'WORKASPACE' ) );
#31 = CLOSED_SHELL ( 'NONE', ( #127, #145, #133, #65, #185 ) ) ;
#32 = ORIENTED_EDGE ( 'NONE', *, *, #91, .F. ) ;
#33 = PERSON_AND_ORGANIZATION_ROLE ( 'classification_officer' ) ;
#34 = ORIENTED_EDGE ( 'NONE', *, *, #121, .F. ) ;
#35 = APPROVAL_ROLE ( '' ) ;
#36 = CIRCLE ( 'NONE', #144, 12.69999999999999929 ) ;
#37 = EDGE_CURVE ( 'NONE', #3, #135, #36, .T. ) ;
#38 = PERSON_AND_ORGANIZATION_ROLE ( 'design_owner' ) ;
#39 = CC_DESIGN_APPROVAL ( #51, ( #175 ) ) ;
#40 =( NAMED_UNIT ( * ) PLANE_ANGLE_UNIT ( ) SI_UNIT ( $, .RADIAN. ) );
#41 = CARTESIAN_POINT ( 'NONE',  ( 9.367506770274758310E-14, 0.000000000000000000, 755.8924656242387528 ) ) ;
#42 = DIRECTION ( 'NONE',  ( 1.000000000000000000, 0.000000000000000000, 0.000000000000000000 ) ) ;
#43 = DIRECTION ( 'NONE',  ( 1.000000000000000000, 0.000000000000000000, 0.000000000000000000 ) ) ;
#44 = CC_DESIGN_DATE_AND_TIME_ASSIGNMENT ( #92, #159, ( #24 ) ) ;
#45 = CIRCLE ( 'NONE', #69, 750.0000000000000000 ) ;
#46 = PERSON_AND_ORGANIZATION ( #166, #180 ) ;
#47 = CARTESIAN_POINT ( 'NONE',  ( 9.367506770274758310E-14, 0.000000000000000000, 755.8924656242387528 ) ) ;
#48 = SECURITY_CLASSIFICATION_LEVEL ( 'unclassified' ) ;
#49 = CC_DESIGN_PERSON_AND_ORGANIZATION_ASSIGNMENT ( #4, #173, ( #24 ) ) ;
#50 = CC_DESIGN_APPROVAL ( #12, ( #171 ) ) ;
#51 = APPROVAL ( #60, 'UNSPECIFIED' ) ;
#52 = DIRECTION ( 'NONE',  ( 0.000000000000000000, 0.000000000000000000, 1.000000000000000000 ) ) ;
#53 = CC_DESIGN_PERSON_AND_ORGANIZATION_ASSIGNMENT ( #46, #64, ( #171 ) ) ;
#54 = FACE_OUTER_BOUND ( 'NONE', #125, .T. ) ;
#55 = CC_DESIGN_APPROVAL ( #160, ( #24 ) ) ;
#56 = CARTESIAN_POINT ( 'NONE',  ( -12.69999999999999929, 0.000000000000000000, 0.000000000000000000 ) ) ;
#57 = DIRECTION ( 'NONE',  ( 1.000000000000000000, 0.000000000000000000, 0.000000000000000000 ) ) ;
#58 = AXIS2_PLACEMENT_3D ( 'NONE', #177, #52, #146 ) ;
#59 = ORIENTED_EDGE ( 'NONE', *, *, #121, .T. ) ;
#60 = APPROVAL_STATUS ( 'not_yet_approved' ) ;
#61 = CARTESIAN_POINT ( 'NONE',  ( 1.395993226707733141E-13, 0.000000000000000000, 5.892465624238729660 ) ) ;
#62 = CALENDAR_DATE ( 2021, 25, 2 ) ;
#63 = CARTESIAN_POINT ( 'NONE',  ( 12.69999999999999929, 1.555301434917138433E-15, 0.000000000000000000 ) ) ;
#64 = PERSON_AND_ORGANIZATION_ROLE ( 'design_supplier' ) ;
#65 = ADVANCED_FACE ( 'NONE', ( #72 ), #186, .F. ) ;
#66 = APPLICATION_CONTEXT ( 'configuration controlled 3d designs of mechanical parts and assemblies' ) ;
#67 =( LENGTH_UNIT ( ) NAMED_UNIT ( * ) SI_UNIT ( .MILLI., .METRE. ) );
#68 = DIRECTION ( 'NONE',  ( -0.000000000000000000, -0.000000000000000000, -1.000000000000000000 ) ) ;
#69 = AXIS2_PLACEMENT_3D ( 'NONE', #115, #98, #167 ) ;
#70 = EDGE_CURVE ( 'NONE', #135, #3, #196, .T. ) ;
#71 = DIRECTION ( 'NONE',  ( -0.000000000000000000, -0.000000000000000000, -1.000000000000000000 ) ) ;
#72 = FACE_OUTER_BOUND ( 'NONE', #74, .T. ) ;
#73 = VECTOR ( 'NONE', #183, 1000.000000000000000 ) ;
#74 = EDGE_LOOP ( 'NONE', ( #191, #189 ) ) ;
#75 = APPROVAL_DATE_TIME ( #96, #160 ) ;
#76 = EDGE_LOOP ( 'NONE', ( #90, #32, #78 ) ) ;
#77 = APPROVAL_STATUS ( 'not_yet_approved' ) ;
#78 = ORIENTED_EDGE ( 'NONE', *, *, #137, .T. ) ;
#79 =( NAMED_UNIT ( * ) SI_UNIT ( $, .STERADIAN. ) SOLID_ANGLE_UNIT ( ) );
#80 = AXIS2_PLACEMENT_3D ( 'NONE', #131, #71, #57 ) ;
#81 = APPROVAL_STATUS ( 'not_yet_approved' ) ;
#82 = VECTOR ( 'NONE', #165, 1000.000000000000000 ) ;
#83 = LINE ( 'NONE', #181, #73 ) ;
#84 = DIRECTION ( 'NONE',  ( -1.000000000000000000, 0.000000000000000000, 0.000000000000000000 ) ) ;
#85 = DESIGN_CONTEXT ( 'detailed design', #66, 'design' ) ;
#86 = CARTESIAN_POINT ( 'NONE',  ( 0.000000000000000000, 0.000000000000000000, 0.000000000000000000 ) ) ;
#87 = CIRCLE ( 'NONE', #151, 750.0000000000000000 ) ;
#88 = PRODUCT_DEFINITION_SHAPE ( 'NONE', 'NONE',  #24 ) ;
#89 = DIRECTION ( 'NONE',  ( 0.000000000000000000, 0.000000000000000000, 1.000000000000000000 ) ) ;
#90 = ORIENTED_EDGE ( 'NONE', *, *, #15, .F. ) ;
#91 = EDGE_CURVE ( 'NONE', #122, #103, #7, .T. ) ;
#92 = DATE_AND_TIME ( #2, #193 ) ;
#93 = CARTESIAN_POINT ( 'NONE',  ( 0.000000000000000000, 0.000000000000000000, 0.000000000000000000 ) ) ;
#94 = COORDINATED_UNIVERSAL_TIME_OFFSET ( 2, 0, .AHEAD. ) ;
#95 = ORIENTED_EDGE ( 'NONE', *, *, #91, .T. ) ;
#96 = DATE_AND_TIME ( #20, #6 ) ;
#97 = LOCAL_TIME ( 13, 52, 43.00000000000000000, #94 ) ;
#98 = DIRECTION ( 'NONE',  ( 0.000000000000000000, 1.000000000000000000, -0.000000000000000000 ) ) ;
#99 = CC_DESIGN_PERSON_AND_ORGANIZATION_ASSIGNMENT ( #136, #124, ( #171 ) ) ;
#100 = LINE ( 'NONE', #168, #82 ) ;
#101 = DIRECTION ( 'NONE',  ( -1.000000000000000000, 0.000000000000000000, 0.000000000000000000 ) ) ;
#102 = CARTESIAN_POINT ( 'NONE',  ( 9.367506770274758310E-14, 0.000000000000000000, 6.000000000000005329 ) ) ;
#103 = VERTEX_POINT ( 'NONE', #170 ) ;
#104 = AXIS2_PLACEMENT_3D ( 'NONE', #117, #10, #184 ) ;
#105 = DATE_AND_TIME ( #62, #13 ) ;
#106 = CC_DESIGN_PERSON_AND_ORGANIZATION_ASSIGNMENT ( #112, #38, ( #152 ) ) ;
#107 = ORIENTED_EDGE ( 'NONE', *, *, #197, .T. ) ;
#108 = COORDINATED_UNIVERSAL_TIME_OFFSET ( 2, 0, .AHEAD. ) ;
#109 = DIRECTION ( 'NONE',  ( 1.224646799147353207E-16, -1.000000000000000000, 0.000000000000000000 ) ) ;
#110 = DATE_AND_TIME ( #157, #97 ) ;
#111 = SHAPE_DEFINITION_REPRESENTATION ( #88, #8 ) ;
#112 = PERSON_AND_ORGANIZATION ( #166, #180 ) ;
#113 = PRODUCT_RELATED_PRODUCT_CATEGORY ( 'detail', '', ( #152 ) ) ;
#114 = CIRCLE ( 'NONE', #80, 12.69999999999923546 ) ;
#115 = CARTESIAN_POINT ( 'NONE',  ( 9.367506770274758310E-14, 0.000000000000000000, 755.8924656242387528 ) ) ;
#116 = UNCERTAINTY_MEASURE_WITH_UNIT (LENGTH_MEASURE( 1.000000000000000082E-05 ), #67, 'distance_accuracy_value', 'NONE');
#117 = CARTESIAN_POINT ( 'NONE',  ( 9.367506770274758310E-14, 0.000000000000000000, 755.8924656242387528 ) ) ;
#118 = CARTESIAN_POINT ( 'NONE',  ( 0.000000000000000000, 0.000000000000000000, 6.000000000000000000 ) ) ;
#119 = EDGE_LOOP ( 'NONE', ( #18, #95, #107, #29 ) ) ;
#120 = COORDINATED_UNIVERSAL_TIME_OFFSET ( 2, 0, .AHEAD. ) ;
#121 = EDGE_CURVE ( 'NONE', #103, #122, #114, .T. ) ;
#122 = VERTEX_POINT ( 'NONE', #150 ) ;
#123 = AXIS2_PLACEMENT_3D ( 'NONE', #86, #27, #43 ) ;
#124 = PERSON_AND_ORGANIZATION_ROLE ( 'creator' ) ;
#125 = EDGE_LOOP ( 'NONE', ( #59, #140, #187, #174 ) ) ;
#126 = AXIS2_PLACEMENT_3D ( 'NONE', #26, #68, #84 ) ;
#127 = ADVANCED_FACE ( 'NONE', ( #28 ), #130, .F. ) ;
#128 = APPLICATION_PROTOCOL_DEFINITION ( 'international standard', 'config_control_design', 1994, #154 ) ;
#129 = SPHERICAL_SURFACE ( 'NONE', #134, 750.0000000000000000 ) ;
#130 = SPHERICAL_SURFACE ( 'NONE', #104, 750.0000000000000000 ) ;
#131 = CARTESIAN_POINT ( 'NONE',  ( 9.367506770274758310E-14, 0.000000000000000000, 6.000000000000005329 ) ) ;
#132 = DIRECTION ( 'NONE',  ( 1.000000000000000000, 0.000000000000000000, -0.000000000000000000 ) ) ;
#133 = ADVANCED_FACE ( 'NONE', ( #199 ), #11, .T. ) ;
#134 = AXIS2_PLACEMENT_3D ( 'NONE', #41, #195, #148 ) ;
#135 = VERTEX_POINT ( 'NONE', #56 ) ;
#136 = PERSON_AND_ORGANIZATION ( #166, #180 ) ;
#137 = EDGE_CURVE ( 'NONE', #122, #1, #45, .T. ) ;
#138 = ORIENTED_EDGE ( 'NONE', *, *, #137, .F. ) ;
#139 = PERSON_AND_ORGANIZATION ( #166, #180 ) ;
#140 = ORIENTED_EDGE ( 'NONE', *, *, #178, .T. ) ;
#141 = CALENDAR_DATE ( 2021, 25, 2 ) ;
#142 = APPROVAL_ROLE ( '' ) ;
#143 = APPROVAL_PERSON_ORGANIZATION ( #23, #160, #35 ) ;
#144 = AXIS2_PLACEMENT_3D ( 'NONE', #93, #156, #16 ) ;
#145 = ADVANCED_FACE ( 'NONE', ( #54 ), #9, .T. ) ;
#146 = DIRECTION ( 'NONE',  ( 1.000000000000000000, 0.000000000000000000, 0.000000000000000000 ) ) ;
#147 = MANIFOLD_SOLID_BREP ( 'Cut-Revolve1', #31 ) ;
#148 = DIRECTION ( 'NONE',  ( 1.000000000000000000, 0.000000000000000000, 0.000000000000000000 ) ) ;
#149 = FACE_OUTER_BOUND ( 'NONE', #76, .T. ) ;
#150 = CARTESIAN_POINT ( 'NONE',  ( 12.69999999999932960, 1.555301434917097609E-15, 6.000000000000005329 ) ) ;
#151 = AXIS2_PLACEMENT_3D ( 'NONE', #47, #109, #172 ) ;
#152 = PRODUCT ( '010-1215E_UVFS_PCV_window', '010-1215E_UVFS_PCV_window', '', ( #163 ) ) ;
#153 = DIRECTION ( 'NONE',  ( -0.000000000000000000, -0.000000000000000000, -1.000000000000000000 ) ) ;
#154 = APPLICATION_CONTEXT ( 'configuration controlled 3d designs of mechanical parts and assemblies' ) ;
#155 = CC_DESIGN_DATE_AND_TIME_ASSIGNMENT ( #19, #188, ( #175 ) ) ;
#156 = DIRECTION ( 'NONE',  ( 0.000000000000000000, 0.000000000000000000, 1.000000000000000000 ) ) ;
#157 = CALENDAR_DATE ( 2021, 25, 2 ) ;
#158 = ORIENTED_EDGE ( 'NONE', *, *, #15, .T. ) ;
#159 = DATE_TIME_ROLE ( 'creation_date' ) ;
#160 = APPROVAL ( #81, 'UNSPECIFIED' ) ;
#161 = COORDINATED_UNIVERSAL_TIME_OFFSET ( 2, 0, .AHEAD. ) ;
#162 = AXIS2_PLACEMENT_3D ( 'NONE', #118, #169, #101 ) ;
#163 = MECHANICAL_CONTEXT ( 'NONE', #154, 'mechanical' ) ;
#164 = APPROVAL_PERSON_ORGANIZATION ( #192, #51, #5 ) ;
#165 = DIRECTION ( 'NONE',  ( -0.000000000000000000, -0.000000000000000000, -1.000000000000000000 ) ) ;
#166 = PERSON ( 'UNSPECIFIED', 'UNSPECIFIED', 'UNSPECIFIED', ('UNSPECIFIED'), ('UNSPECIFIED'), ('UNSPECIFIED') ) ;
#167 = DIRECTION ( 'NONE',  ( 0.000000000000000000, 0.000000000000000000, 1.000000000000000000 ) ) ;
#168 = CARTESIAN_POINT ( 'NONE',  ( -12.69999999999999929, 0.000000000000000000, 6.000000000000000000 ) ) ;
#169 = DIRECTION ( 'NONE',  ( -0.000000000000000000, -0.000000000000000000, -1.000000000000000000 ) ) ;
#170 = CARTESIAN_POINT ( 'NONE',  ( -12.69999999999914309, 0.000000000000000000, 6.000000000000005329 ) ) ;
#171 = PRODUCT_DEFINITION_FORMATION_WITH_SPECIFIED_SOURCE ( 'ANY', '', #152, .NOT_KNOWN. ) ;
#172 = DIRECTION ( 'NONE',  ( 1.000000000000000000, 1.224646799147353207E-16, 0.000000000000000000 ) ) ;
#173 = PERSON_AND_ORGANIZATION_ROLE ( 'creator' ) ;
#174 = ORIENTED_EDGE ( 'NONE', *, *, #197, .F. ) ;
#175 = SECURITY_CLASSIFICATION ( '', '', #48 ) ;
#176 = PERSON_AND_ORGANIZATION ( #166, #180 ) ;
#177 = CARTESIAN_POINT ( 'NONE',  ( 0.000000000000000000, 0.000000000000000000, 0.000000000000000000 ) ) ;
#178 = EDGE_CURVE ( 'NONE', #122, #3, #83, .T. ) ;
#179 = APPLICATION_PROTOCOL_DEFINITION ( 'international standard', 'config_control_design', 1994, #66 ) ;
#180 = ORGANIZATION ( 'UNSPECIFIED', 'UNSPECIFIED', '' ) ;
#181 = CARTESIAN_POINT ( 'NONE',  ( 12.69999999999999929, 1.555301434917138433E-15, 6.000000000000000000 ) ) ;
#182 = AXIS2_PLACEMENT_3D ( 'NONE', #102, #153, #42 ) ;
#183 = DIRECTION ( 'NONE',  ( -0.000000000000000000, -0.000000000000000000, -1.000000000000000000 ) ) ;
#184 = DIRECTION ( 'NONE',  ( 1.000000000000000000, 0.000000000000000000, 0.000000000000000000 ) ) ;
#185 = ADVANCED_FACE ( 'NONE', ( #149 ), #129, .F. ) ;
#186 = PLANE ( 'NONE',  #22 ) ;
#187 = ORIENTED_EDGE ( 'NONE', *, *, #37, .T. ) ;
#188 = DATE_TIME_ROLE ( 'classification_date' ) ;
#189 = ORIENTED_EDGE ( 'NONE', *, *, #37, .F. ) ;
#190 = COORDINATED_UNIVERSAL_TIME_OFFSET ( 2, 0, .AHEAD. ) ;
#191 = ORIENTED_EDGE ( 'NONE', *, *, #70, .F. ) ;
#192 = PERSON_AND_ORGANIZATION ( #166, #180 ) ;
#193 = LOCAL_TIME ( 13, 52, 43.00000000000000000, #190 ) ;
#194 = CC_DESIGN_SECURITY_CLASSIFICATION ( #175, ( #171 ) ) ;
#195 = DIRECTION ( 'NONE',  ( 0.000000000000000000, -1.000000000000000000, -0.000000000000000000 ) ) ;
#196 = CIRCLE ( 'NONE', #123, 12.69999999999999929 ) ;
#197 = EDGE_CURVE ( 'NONE', #103, #135, #100, .T. ) ;
#198 = CARTESIAN_POINT ( 'NONE',  ( 0.000000000000000000, 0.000000000000000000, 0.000000000000000000 ) ) ;
#199 = FACE_OUTER_BOUND ( 'NONE', #119, .T. ) ;
#200 = LOCAL_TIME ( 13, 52, 43.00000000000000000, #108 ) ;
#201 = APPROVAL_DATE_TIME ( #105, #12 ) ;
ENDSEC;
END-ISO-10303-21;
