ISO-10303-21;
HEADER;
FILE_DESCRIPTION (( 'STEP AP203' ),
    '1' );
FILE_NAME ('010-1214E_UVFS_PCV_window.STEP',
    '2021-02-25T11:52:11',
    ( '' ),
    ( '' ),
    'SwSTEP 2.0',
    'SolidWorks 2019',
    '' );
FILE_SCHEMA (( 'CONFIG_CONTROL_DESIGN' ));
ENDSEC;

DATA;
#1 = LOCAL_TIME ( 13, 52, 11.00000000000000000, #140 ) ;
#2 = EDGE_LOOP ( 'NONE', ( #112, #4, #50, #18 ) ) ;
#3 = CARTESIAN_POINT ( 'NONE',  ( 12.69999999999999929, 1.555301434917138433E-15, 6.000000000000000000 ) ) ;
#4 = ORIENTED_EDGE ( 'NONE', *, *, #107, .T. ) ;
#5 = LOCAL_TIME ( 13, 52, 11.00000000000000000, #122 ) ;
#6 = CARTESIAN_POINT ( 'NONE',  ( 0.000000000000000000, 0.000000000000000000, 6.000000000000000000 ) ) ;
#7 = DIRECTION ( 'NONE',  ( -0.000000000000000000, -0.000000000000000000, -1.000000000000000000 ) ) ;
#8 = EDGE_CURVE ( 'NONE', #98, #101, #89, .T. ) ;
#9 = CYLINDRICAL_SURFACE ( 'NONE', #77, 12.69999999999999929 ) ;
#10 =( NAMED_UNIT ( * ) SI_UNIT ( $, .STERADIAN. ) SOLID_ANGLE_UNIT ( ) );
#11 = EDGE_CURVE ( 'NONE', #42, #69, #35, .T. ) ;
#12 = PERSON_AND_ORGANIZATION_ROLE ( 'classification_officer' ) ;
#13 = AXIS2_PLACEMENT_3D ( 'NONE', #22, #114, #165 ) ;
#14 = APPROVAL_ROLE ( '' ) ;
#15 = COORDINATED_UNIVERSAL_TIME_OFFSET ( 2, 0, .AHEAD. ) ;
#16 = AXIS2_PLACEMENT_3D ( 'NONE', #99, #120, #20 ) ;
#17 = VERTEX_POINT ( 'NONE', #150 ) ;
#18 = ORIENTED_EDGE ( 'NONE', *, *, #8, .T. ) ;
#19 = APPROVAL ( #142, 'UNSPECIFIED' ) ;
#20 = DIRECTION ( 'NONE',  ( 1.000000000000000000, 0.000000000000000000, 0.000000000000000000 ) ) ;
#21 = DIRECTION ( 'NONE',  ( -0.000000000000000000, -0.000000000000000000, -1.000000000000000000 ) ) ;
#22 = CARTESIAN_POINT ( 'NONE',  ( 0.000000000000000000, 0.000000000000000000, 6.000000000000000000 ) ) ;
#23 = DIRECTION ( 'NONE',  ( 0.000000000000000000, -1.000000000000000000, -0.000000000000000000 ) ) ;
#24 = DIRECTION ( 'NONE',  ( 1.000000000000000000, 1.224646799147353207E-16, 0.000000000000000000 ) ) ;
#25 = SECURITY_CLASSIFICATION ( '', '', #127 ) ;
#26 = COORDINATED_UNIVERSAL_TIME_OFFSET ( 2, 0, .AHEAD. ) ;
#27 = CALENDAR_DATE ( 2021, 25, 2 ) ;
#28 = CALENDAR_DATE ( 2021, 25, 2 ) ;
#29 = PERSON_AND_ORGANIZATION_ROLE ( 'creator' ) ;
#30 = EDGE_LOOP ( 'NONE', ( #53, #33, #85, #83 ) ) ;
#31 = ORGANIZATION ( 'UNSPECIFIED', 'UNSPECIFIED', '' ) ;
#32 = MANIFOLD_SOLID_BREP ( 'Cut-Revolve1', #48 ) ;
#33 = ORIENTED_EDGE ( 'NONE', *, *, #179, .T. ) ;
#34 = ORIENTED_EDGE ( 'NONE', *, *, #11, .F. ) ;
#35 = CIRCLE ( 'NONE', #176, 699.9999999999998863 ) ;
#36 = DIRECTION ( 'NONE',  ( 1.000000000000000000, 0.000000000000000000, 0.000000000000000000 ) ) ;
#37 = CARTESIAN_POINT ( 'NONE',  ( -12.69999999999999929, 0.000000000000000000, 6.000000000000000000 ) ) ;
#38 = CARTESIAN_POINT ( 'NONE',  ( -12.69999999999999929, 0.000000000000000000, 0.000000000000000000 ) ) ;
#39 = VECTOR ( 'NONE', #7, 1000.000000000000000 ) ;
#40 = DIRECTION ( 'NONE',  ( 1.000000000000000000, 0.000000000000000000, 0.000000000000000000 ) ) ;
#41 = PRODUCT_DEFINITION_SHAPE ( 'NONE', 'NONE',  #52 ) ;
#42 = VERTEX_POINT ( 'NONE', #161 ) ;
#43 = APPROVAL_ROLE ( '' ) ;
#44 = PRODUCT_RELATED_PRODUCT_CATEGORY ( 'detail', '', ( #87 ) ) ;
#45 = AXIS2_PLACEMENT_3D ( 'NONE', #74, #137, #135 ) ;
#46 = CALENDAR_DATE ( 2021, 25, 2 ) ;
#47 = CC_DESIGN_PERSON_AND_ORGANIZATION_ASSIGNMENT ( #189, #169, ( #111 ) ) ;
#48 = CLOSED_SHELL ( 'NONE', ( #81, #49, #147, #183, #159 ) ) ;
#49 = ADVANCED_FACE ( 'NONE', ( #180 ), #9, .T. ) ;
#50 = ORIENTED_EDGE ( 'NONE', *, *, #200, .T. ) ;
#51 = APPLICATION_CONTEXT ( 'configuration controlled 3d designs of mechanical parts and assemblies' ) ;
#52 = PRODUCT_DEFINITION ( 'UNKNOWN', '', #111, #141 ) ;
#53 = ORIENTED_EDGE ( 'NONE', *, *, #86, .T. ) ;
#54 = CARTESIAN_POINT ( 'NONE',  ( 12.69999999999999929, 1.555301434917138433E-15, 0.000000000000000000 ) ) ;
#55 = CC_DESIGN_APPROVAL ( #152, ( #52 ) ) ;
#56 = AXIS2_PLACEMENT_3D ( 'NONE', #136, #59, #24 ) ;
#57 = CARTESIAN_POINT ( 'NONE',  ( 0.000000000000000000, 0.000000000000000000, 0.000000000000000000 ) ) ;
#58 = DIRECTION ( 'NONE',  ( 0.000000000000000000, 1.000000000000000000, -0.000000000000000000 ) ) ;
#59 = DIRECTION ( 'NONE',  ( 1.224646799147353207E-16, -1.000000000000000000, 0.000000000000000000 ) ) ;
#60 = CIRCLE ( 'NONE', #56, 700.0000000000000000 ) ;
#61 = CC_DESIGN_DATE_AND_TIME_ASSIGNMENT ( #109, #126, ( #52 ) ) ;
#62 = LOCAL_TIME ( 13, 52, 11.00000000000000000, #15 ) ;
#63 = APPROVAL_DATE_TIME ( #106, #152 ) ;
#64 = PERSON_AND_ORGANIZATION ( #129, #31 ) ;
#65 = UNCERTAINTY_MEASURE_WITH_UNIT (LENGTH_MEASURE( 1.000000000000000082E-05 ), #154, 'distance_accuracy_value', 'NONE');
#66 = COORDINATED_UNIVERSAL_TIME_OFFSET ( 2, 0, .AHEAD. ) ;
#67 = EDGE_LOOP ( 'NONE', ( #134, #80, #173 ) ) ;
#68 = VECTOR ( 'NONE', #162, 1000.000000000000000 ) ;
#69 = VERTEX_POINT ( 'NONE', #181 ) ;
#70 = FACE_OUTER_BOUND ( 'NONE', #146, .T. ) ;
#71 = DIRECTION ( 'NONE',  ( 1.000000000000000000, 0.000000000000000000, 0.000000000000000000 ) ) ;
#72 = CARTESIAN_POINT ( 'NONE',  ( 8.673617379884035472E-14, 0.000000000000000000, 6.000000000000005329 ) ) ;
#73 = CARTESIAN_POINT ( 'NONE',  ( 0.000000000000000000, 0.000000000000000000, 0.000000000000000000 ) ) ;
#74 = CARTESIAN_POINT ( 'NONE',  ( 0.000000000000000000, 0.000000000000000000, 0.000000000000000000 ) ) ;
#75 = APPLICATION_CONTEXT ( 'configuration controlled 3d designs of mechanical parts and assemblies' ) ;
#76 = APPROVAL_STATUS ( 'not_yet_approved' ) ;
#77 = AXIS2_PLACEMENT_3D ( 'NONE', #6, #21, #151 ) ;
#78 = CC_DESIGN_APPROVAL ( #97, ( #25 ) ) ;
#79 = CC_DESIGN_PERSON_AND_ORGANIZATION_ASSIGNMENT ( #184, #123, ( #87 ) ) ;
#80 = ORIENTED_EDGE ( 'NONE', *, *, #107, .F. ) ;
#81 = ADVANCED_FACE ( 'NONE', ( #177 ), #196, .F. ) ;
#82 = ORIENTED_EDGE ( 'NONE', *, *, #86, .F. ) ;
#83 = ORIENTED_EDGE ( 'NONE', *, *, #200, .F. ) ;
#84 = CARTESIAN_POINT ( 'NONE',  ( 8.673617379884035472E-14, 0.000000000000000000, 705.8847833750924110 ) ) ;
#85 = ORIENTED_EDGE ( 'NONE', *, *, #130, .T. ) ;
#86 = EDGE_CURVE ( 'NONE', #17, #42, #113, .T. ) ;
#87 = PRODUCT ( '010-1214E_UVFS_PCV_window', '010-1214E_UVFS_PCV_window', '', ( #121 ) ) ;
#88 = LINE ( 'NONE', #3, #39 ) ;
#89 = CIRCLE ( 'NONE', #102, 12.69999999999999929 ) ;
#90 = CARTESIAN_POINT ( 'NONE',  ( 0.000000000000000000, 0.000000000000000000, 0.000000000000000000 ) ) ;
#91 = DIRECTION ( 'NONE',  ( 1.000000000000000000, 0.000000000000000000, 0.000000000000000000 ) ) ;
#92 = DATE_AND_TIME ( #156, #1 ) ;
#93 = APPROVAL_STATUS ( 'not_yet_approved' ) ;
#94 = APPROVAL_DATE_TIME ( #92, #19 ) ;
#95 = PERSON_AND_ORGANIZATION_ROLE ( 'design_supplier' ) ;
#96 = AXIS2_PLACEMENT_3D ( 'NONE', #90, #168, #91 ) ;
#97 = APPROVAL ( #93, 'UNSPECIFIED' ) ;
#98 = VERTEX_POINT ( 'NONE', #38 ) ;
#99 = CARTESIAN_POINT ( 'NONE',  ( 8.673617379884035472E-14, 0.000000000000000000, 705.8847833750924110 ) ) ;
#100 = FACE_OUTER_BOUND ( 'NONE', #67, .T. ) ;
#101 = VERTEX_POINT ( 'NONE', #54 ) ;
#102 = AXIS2_PLACEMENT_3D ( 'NONE', #73, #164, #40 ) ;
#103 = CARTESIAN_POINT ( 'NONE',  ( 8.673617379884035472E-14, 0.000000000000000000, 6.000000000000005329 ) ) ;
#104 = CYLINDRICAL_SURFACE ( 'NONE', #13, 12.69999999999999929 ) ;
#105 = PERSON_AND_ORGANIZATION ( #129, #31 ) ;
#106 = DATE_AND_TIME ( #27, #132 ) ;
#107 = EDGE_CURVE ( 'NONE', #42, #17, #133, .T. ) ;
#108 = DATE_AND_TIME ( #158, #144 ) ;
#109 = DATE_AND_TIME ( #46, #5 ) ;
#110 = ORIENTED_EDGE ( 'NONE', *, *, #128, .T. ) ;
#111 = PRODUCT_DEFINITION_FORMATION_WITH_SPECIFIED_SOURCE ( 'ANY', '', #87, .NOT_KNOWN. ) ;
#112 = ORIENTED_EDGE ( 'NONE', *, *, #179, .F. ) ;
#113 = CIRCLE ( 'NONE', #119, 12.69999999999705231 ) ;
#114 = DIRECTION ( 'NONE',  ( -0.000000000000000000, -0.000000000000000000, -1.000000000000000000 ) ) ;
#115 = CC_DESIGN_DATE_AND_TIME_ASSIGNMENT ( #108, #185, ( #25 ) ) ;
#116 = DIRECTION ( 'NONE',  ( 0.000000000000000000, 0.000000000000000000, 1.000000000000000000 ) ) ;
#117 = DIRECTION ( 'NONE',  ( -0.000000000000000000, -0.000000000000000000, -1.000000000000000000 ) ) ;
#118 = DIRECTION ( 'NONE',  ( 1.000000000000000000, 0.000000000000000000, -0.000000000000000000 ) ) ;
#119 = AXIS2_PLACEMENT_3D ( 'NONE', #72, #117, #153 ) ;
#120 = DIRECTION ( 'NONE',  ( 0.000000000000000000, -1.000000000000000000, -0.000000000000000000 ) ) ;
#121 = MECHANICAL_CONTEXT ( 'NONE', #51, 'mechanical' ) ;
#122 = COORDINATED_UNIVERSAL_TIME_OFFSET ( 2, 0, .AHEAD. ) ;
#123 = PERSON_AND_ORGANIZATION_ROLE ( 'design_owner' ) ;
#124 = ADVANCED_BREP_SHAPE_REPRESENTATION ( '010-1214E_UVFS_PCV_window', ( #32, #96 ), #186 ) ;
#125 = APPROVAL_PERSON_ORGANIZATION ( #105, #19, #201 ) ;
#126 = DATE_TIME_ROLE ( 'creation_date' ) ;
#127 = SECURITY_CLASSIFICATION_LEVEL ( 'unclassified' ) ;
#128 = EDGE_CURVE ( 'NONE', #17, #69, #60, .T. ) ;
#129 = PERSON ( 'UNSPECIFIED', 'UNSPECIFIED', 'UNSPECIFIED', ('UNSPECIFIED'), ('UNSPECIFIED'), ('UNSPECIFIED') ) ;
#130 = EDGE_CURVE ( 'NONE', #101, #98, #167, .T. ) ;
#131 = EDGE_LOOP ( 'NONE', ( #82, #110, #34 ) ) ;
#132 = LOCAL_TIME ( 13, 52, 11.00000000000000000, #26 ) ;
#133 = CIRCLE ( 'NONE', #145, 12.69999999999705231 ) ;
#134 = ORIENTED_EDGE ( 'NONE', *, *, #128, .F. ) ;
#135 = DIRECTION ( 'NONE',  ( 1.000000000000000000, 0.000000000000000000, 0.000000000000000000 ) ) ;
#136 = CARTESIAN_POINT ( 'NONE',  ( 8.673617379884035472E-14, 0.000000000000000000, 705.8847833750924110 ) ) ;
#137 = DIRECTION ( 'NONE',  ( 0.000000000000000000, 0.000000000000000000, 1.000000000000000000 ) ) ;
#138 =( NAMED_UNIT ( * ) PLANE_ANGLE_UNIT ( ) SI_UNIT ( $, .RADIAN. ) );
#139 = PERSON_AND_ORGANIZATION ( #129, #31 ) ;
#140 = COORDINATED_UNIVERSAL_TIME_OFFSET ( 2, 0, .AHEAD. ) ;
#141 = DESIGN_CONTEXT ( 'detailed design', #75, 'design' ) ;
#142 = APPROVAL_STATUS ( 'not_yet_approved' ) ;
#143 = SHAPE_DEFINITION_REPRESENTATION ( #41, #124 ) ;
#144 = LOCAL_TIME ( 13, 52, 11.00000000000000000, #66 ) ;
#145 = AXIS2_PLACEMENT_3D ( 'NONE', #103, #182, #36 ) ;
#146 = EDGE_LOOP ( 'NONE', ( #160, #175 ) ) ;
#147 = ADVANCED_FACE ( 'NONE', ( #194 ), #104, .T. ) ;
#148 = SPHERICAL_SURFACE ( 'NONE', #163, 700.0000000000000000 ) ;
#149 = CC_DESIGN_APPROVAL ( #19, ( #111 ) ) ;
#150 = CARTESIAN_POINT ( 'NONE',  ( -12.69999999999696527, 0.000000000000000000, 6.000000000000005329 ) ) ;
#151 = DIRECTION ( 'NONE',  ( -1.000000000000000000, 0.000000000000000000, 0.000000000000000000 ) ) ;
#152 = APPROVAL ( #76, 'UNSPECIFIED' ) ;
#153 = DIRECTION ( 'NONE',  ( 1.000000000000000000, 0.000000000000000000, 0.000000000000000000 ) ) ;
#154 =( LENGTH_UNIT ( ) NAMED_UNIT ( * ) SI_UNIT ( .MILLI., .METRE. ) );
#155 = DATE_AND_TIME ( #28, #62 ) ;
#156 = CALENDAR_DATE ( 2021, 25, 2 ) ;
#157 = AXIS2_PLACEMENT_3D ( 'NONE', #57, #116, #118 ) ;
#158 = CALENDAR_DATE ( 2021, 25, 2 ) ;
#159 = ADVANCED_FACE ( 'NONE', ( #100 ), #148, .F. ) ;
#160 = ORIENTED_EDGE ( 'NONE', *, *, #8, .F. ) ;
#161 = CARTESIAN_POINT ( 'NONE',  ( 12.69999999999713935, 1.555301434916963305E-15, 6.000000000000005329 ) ) ;
#162 = DIRECTION ( 'NONE',  ( -0.000000000000000000, -0.000000000000000000, -1.000000000000000000 ) ) ;
#163 = AXIS2_PLACEMENT_3D ( 'NONE', #84, #23, #71 ) ;
#164 = DIRECTION ( 'NONE',  ( 0.000000000000000000, 0.000000000000000000, 1.000000000000000000 ) ) ;
#165 = DIRECTION ( 'NONE',  ( -1.000000000000000000, 0.000000000000000000, 0.000000000000000000 ) ) ;
#166 = APPROVAL_PERSON_ORGANIZATION ( #139, #152, #43 ) ;
#167 = CIRCLE ( 'NONE', #45, 12.69999999999999929 ) ;
#168 = DIRECTION ( 'NONE',  ( 0.000000000000000000, 0.000000000000000000, 1.000000000000000000 ) ) ;
#169 = PERSON_AND_ORGANIZATION_ROLE ( 'creator' ) ;
#170 = PERSON_AND_ORGANIZATION ( #129, #31 ) ;
#171 = CC_DESIGN_PERSON_AND_ORGANIZATION_ASSIGNMENT ( #199, #95, ( #111 ) ) ;
#172 = APPROVAL_PERSON_ORGANIZATION ( #170, #97, #14 ) ;
#173 = ORIENTED_EDGE ( 'NONE', *, *, #11, .T. ) ;
#174 = CC_DESIGN_PERSON_AND_ORGANIZATION_ASSIGNMENT ( #64, #12, ( #25 ) ) ;
#175 = ORIENTED_EDGE ( 'NONE', *, *, #130, .F. ) ;
#176 = AXIS2_PLACEMENT_3D ( 'NONE', #195, #58, #192 ) ;
#177 = FACE_OUTER_BOUND ( 'NONE', #131, .T. ) ;
#178 = LINE ( 'NONE', #37, #68 ) ;
#179 = EDGE_CURVE ( 'NONE', #42, #101, #88, .T. ) ;
#180 = FACE_OUTER_BOUND ( 'NONE', #30, .T. ) ;
#181 = CARTESIAN_POINT ( 'NONE',  ( 1.295988117689977323E-13, 0.000000000000000000, 5.884783375092461633 ) ) ;
#182 = DIRECTION ( 'NONE',  ( -0.000000000000000000, -0.000000000000000000, -1.000000000000000000 ) ) ;
#183 = ADVANCED_FACE ( 'NONE', ( #70 ), #193, .F. ) ;
#184 = PERSON_AND_ORGANIZATION ( #129, #31 ) ;
#185 = DATE_TIME_ROLE ( 'classification_date' ) ;
#186 =( GEOMETRIC_REPRESENTATION_CONTEXT ( 3 ) GLOBAL_UNCERTAINTY_ASSIGNED_CONTEXT ( ( #65 ) ) GLOBAL_UNIT_ASSIGNED_CONTEXT ( ( #154, #138, #10 ) ) REPRESENTATION_CONTEXT ( 'NONE', 'WORKASPACE' ) );
#187 = PERSON_AND_ORGANIZATION ( #129, #31 ) ;
#188 = APPLICATION_PROTOCOL_DEFINITION ( 'international standard', 'config_control_design', 1994, #75 ) ;
#189 = PERSON_AND_ORGANIZATION ( #129, #31 ) ;
#190 = CC_DESIGN_PERSON_AND_ORGANIZATION_ASSIGNMENT ( #187, #29, ( #52 ) ) ;
#191 = APPROVAL_DATE_TIME ( #155, #97 ) ;
#192 = DIRECTION ( 'NONE',  ( 0.000000000000000000, 0.000000000000000000, 1.000000000000000000 ) ) ;
#193 = PLANE ( 'NONE',  #157 ) ;
#194 = FACE_OUTER_BOUND ( 'NONE', #2, .T. ) ;
#195 = CARTESIAN_POINT ( 'NONE',  ( 8.673617379884035472E-14, 0.000000000000000000, 705.8847833750924110 ) ) ;
#196 = SPHERICAL_SURFACE ( 'NONE', #16, 700.0000000000000000 ) ;
#197 = CC_DESIGN_SECURITY_CLASSIFICATION ( #25, ( #111 ) ) ;
#198 = APPLICATION_PROTOCOL_DEFINITION ( 'international standard', 'config_control_design', 1994, #51 ) ;
#199 = PERSON_AND_ORGANIZATION ( #129, #31 ) ;
#200 = EDGE_CURVE ( 'NONE', #17, #98, #178, .T. ) ;
#201 = APPROVAL_ROLE ( '' ) ;
ENDSEC;
END-ISO-10303-21;
