ISO-10303-21;
HEADER;
FILE_DESCRIPTION (( 'STEP AP203' ),
    '1' );
FILE_NAME ('010-1212E_UVFS_PCV_window.STEP',
    '2021-02-25T11:51:50',
    ( '' ),
    ( '' ),
    'SwSTEP 2.0',
    'SolidWorks 2019',
    '' );
FILE_SCHEMA (( 'CONFIG_CONTROL_DESIGN' ));
ENDSEC;

DATA;
#1 = ORIENTED_EDGE ( 'NONE', *, *, #160, .F. ) ;
#2 = EDGE_LOOP ( 'NONE', ( #17, #82, #50, #14 ) ) ;
#3 = DIRECTION ( 'NONE',  ( 0.000000000000000000, -1.000000000000000000, -0.000000000000000000 ) ) ;
#4 = DIRECTION ( 'NONE',  ( 0.000000000000000000, 0.000000000000000000, 1.000000000000000000 ) ) ;
#5 = DIRECTION ( 'NONE',  ( 1.000000000000000000, 0.000000000000000000, 0.000000000000000000 ) ) ;
#6 = DIRECTION ( 'NONE',  ( -1.000000000000000000, 0.000000000000000000, 0.000000000000000000 ) ) ;
#7 = AXIS2_PLACEMENT_3D ( 'NONE', #107, #135, #26 ) ;
#8 = CARTESIAN_POINT ( 'NONE',  ( 7.459310946700270506E-14, 0.000000000000000000, 605.8655766086264975 ) ) ;
#9 = CC_DESIGN_PERSON_AND_ORGANIZATION_ASSIGNMENT ( #77, #182, ( #63 ) ) ;
#10 = CIRCLE ( 'NONE', #112, 12.69999999999486562 ) ;
#11 = CALENDAR_DATE ( 2021, 25, 2 ) ;
#12 = APPROVAL_ROLE ( '' ) ;
#13 = DATE_AND_TIME ( #113, #151 ) ;
#14 = ORIENTED_EDGE ( 'NONE', *, *, #76, .F. ) ;
#15 = ORIENTED_EDGE ( 'NONE', *, *, #93, .F. ) ;
#16 = ORGANIZATION ( 'UNSPECIFIED', 'UNSPECIFIED', '' ) ;
#17 = ORIENTED_EDGE ( 'NONE', *, *, #22, .T. ) ;
#18 = DIRECTION ( 'NONE',  ( -1.000000000000000000, 0.000000000000000000, 0.000000000000000000 ) ) ;
#19 = CARTESIAN_POINT ( 'NONE',  ( 0.000000000000000000, 0.000000000000000000, 6.000000000000000000 ) ) ;
#20 = CARTESIAN_POINT ( 'NONE',  ( 0.000000000000000000, 0.000000000000000000, 0.000000000000000000 ) ) ;
#21 = CARTESIAN_POINT ( 'NONE',  ( 12.69999999999999929, 1.555301434917138433E-15, 6.000000000000000000 ) ) ;
#22 = EDGE_CURVE ( 'NONE', #66, #173, #24, .T. ) ;
#23 = DIRECTION ( 'NONE',  ( 1.000000000000000000, 1.224646799147353207E-16, 0.000000000000000000 ) ) ;
#24 = CIRCLE ( 'NONE', #28, 12.69999999999486562 ) ;
#25 = PERSON_AND_ORGANIZATION ( #51, #16 ) ;
#26 = DIRECTION ( 'NONE',  ( 1.000000000000000000, 0.000000000000000000, 0.000000000000000000 ) ) ;
#27 = PERSON_AND_ORGANIZATION_ROLE ( 'creator' ) ;
#28 = AXIS2_PLACEMENT_3D ( 'NONE', #122, #134, #148 ) ;
#29 = PERSON_AND_ORGANIZATION_ROLE ( 'design_owner' ) ;
#30 = VERTEX_POINT ( 'NONE', #87 ) ;
#31 = APPROVAL ( #169, 'UNSPECIFIED' ) ;
#32 = CARTESIAN_POINT ( 'NONE',  ( 7.459310946700270506E-14, 0.000000000000000000, 605.8655766086264975 ) ) ;
#33 = DIRECTION ( 'NONE',  ( 1.000000000000000000, 0.000000000000000000, 0.000000000000000000 ) ) ;
#34 = DIRECTION ( 'NONE',  ( 1.000000000000000000, 0.000000000000000000, 0.000000000000000000 ) ) ;
#35 = CIRCLE ( 'NONE', #174, 12.69999999999999929 ) ;
#36 = ADVANCED_FACE ( 'NONE', ( #158 ), #164, .T. ) ;
#37 = CARTESIAN_POINT ( 'NONE',  ( 7.459310946700270506E-14, 0.000000000000000000, 605.8655766086264975 ) ) ;
#38 = FACE_OUTER_BOUND ( 'NONE', #46, .T. ) ;
#39 = COORDINATED_UNIVERSAL_TIME_OFFSET ( 2, 0, .AHEAD. ) ;
#40 = APPLICATION_PROTOCOL_DEFINITION ( 'international standard', 'config_control_design', 1994, #162 ) ;
#41 = AXIS2_PLACEMENT_3D ( 'NONE', #131, #54, #18 ) ;
#42 = COORDINATED_UNIVERSAL_TIME_OFFSET ( 2, 0, .AHEAD. ) ;
#43 = EDGE_LOOP ( 'NONE', ( #15, #187, #198, #114 ) ) ;
#44 = CC_DESIGN_PERSON_AND_ORGANIZATION_ASSIGNMENT ( #195, #27, ( #63 ) ) ;
#45 = PRODUCT_RELATED_PRODUCT_CATEGORY ( 'detail', '', ( #59 ) ) ;
#46 = EDGE_LOOP ( 'NONE', ( #99, #143 ) ) ;
#47 = UNCERTAINTY_MEASURE_WITH_UNIT (LENGTH_MEASURE( 1.000000000000000082E-05 ), #192, 'distance_accuracy_value', 'NONE');
#48 = PLANE ( 'NONE',  #49 ) ;
#49 = AXIS2_PLACEMENT_3D ( 'NONE', #20, #53, #144 ) ;
#50 = ORIENTED_EDGE ( 'NONE', *, *, #184, .T. ) ;
#51 = PERSON ( 'UNSPECIFIED', 'UNSPECIFIED', 'UNSPECIFIED', ('UNSPECIFIED'), ('UNSPECIFIED'), ('UNSPECIFIED') ) ;
#52 = EDGE_CURVE ( 'NONE', #66, #67, #145, .T. ) ;
#53 = DIRECTION ( 'NONE',  ( 0.000000000000000000, 0.000000000000000000, 1.000000000000000000 ) ) ;
#54 = DIRECTION ( 'NONE',  ( -0.000000000000000000, -0.000000000000000000, -1.000000000000000000 ) ) ;
#55 = PERSON_AND_ORGANIZATION_ROLE ( 'creator' ) ;
#56 = PERSON_AND_ORGANIZATION ( #51, #16 ) ;
#57 = PRODUCT_DEFINITION_SHAPE ( 'NONE', 'NONE',  #132 ) ;
#58 = CIRCLE ( 'NONE', #166, 12.69999999999999929 ) ;
#59 = PRODUCT ( '010-1212E_UVFS_PCV_window', '010-1212E_UVFS_PCV_window', '', ( #167 ) ) ;
#60 = COORDINATED_UNIVERSAL_TIME_OFFSET ( 2, 0, .AHEAD. ) ;
#61 = ADVANCED_FACE ( 'NONE', ( #180 ), #146, .F. ) ;
#62 = APPLICATION_PROTOCOL_DEFINITION ( 'international standard', 'config_control_design', 1994, #129 ) ;
#63 = PRODUCT_DEFINITION_FORMATION_WITH_SPECIFIED_SOURCE ( 'ANY', '', #59, .NOT_KNOWN. ) ;
#64 = ORIENTED_EDGE ( 'NONE', *, *, #52, .T. ) ;
#65 = CC_DESIGN_SECURITY_CLASSIFICATION ( #90, ( #63 ) ) ;
#66 = VERTEX_POINT ( 'NONE', #83 ) ;
#67 = VERTEX_POINT ( 'NONE', #193 ) ;
#68 = APPROVAL ( #155, 'UNSPECIFIED' ) ;
#69 = FACE_OUTER_BOUND ( 'NONE', #43, .T. ) ;
#70 = DIRECTION ( 'NONE',  ( -0.000000000000000000, -0.000000000000000000, -1.000000000000000000 ) ) ;
#71 = DIRECTION ( 'NONE',  ( 0.000000000000000000, 1.000000000000000000, -0.000000000000000000 ) ) ;
#72 = APPROVAL_DATE_TIME ( #197, #31 ) ;
#73 = CALENDAR_DATE ( 2021, 25, 2 ) ;
#74 = CC_DESIGN_APPROVAL ( #31, ( #63 ) ) ;
#75 = DATE_AND_TIME ( #157, #103 ) ;
#76 = EDGE_CURVE ( 'NONE', #66, #30, #163, .T. ) ;
#77 = PERSON_AND_ORGANIZATION ( #51, #16 ) ;
#78 = APPROVAL_DATE_TIME ( #13, #68 ) ;
#79 = VECTOR ( 'NONE', #161, 1000.000000000000000 ) ;
#80 = ORIENTED_EDGE ( 'NONE', *, *, #170, .F. ) ;
#81 = EDGE_LOOP ( 'NONE', ( #190, #64, #1 ) ) ;
#82 = ORIENTED_EDGE ( 'NONE', *, *, #93, .T. ) ;
#83 = CARTESIAN_POINT ( 'NONE',  ( -12.69999999999479101, 0.000000000000000000, 6.000000000000005329 ) ) ;
#84 = DESIGN_CONTEXT ( 'detailed design', #129, 'design' ) ;
#85 = ADVANCED_FACE ( 'NONE', ( #38 ), #48, .F. ) ;
#86 = CARTESIAN_POINT ( 'NONE',  ( 0.000000000000000000, 0.000000000000000000, 0.000000000000000000 ) ) ;
#87 = CARTESIAN_POINT ( 'NONE',  ( -12.69999999999999929, 0.000000000000000000, 0.000000000000000000 ) ) ;
#88 = CARTESIAN_POINT ( 'NONE',  ( 7.459310946700270506E-14, 0.000000000000000000, 605.8655766086264975 ) ) ;
#89 = SPHERICAL_SURFACE ( 'NONE', #94, 599.9999999999998863 ) ;
#90 = SECURITY_CLASSIFICATION ( '', '', #106 ) ;
#91 = PERSON_AND_ORGANIZATION_ROLE ( 'classification_officer' ) ;
#92 = CALENDAR_DATE ( 2021, 25, 2 ) ;
#93 = EDGE_CURVE ( 'NONE', #173, #199, #133, .T. ) ;
#94 = AXIS2_PLACEMENT_3D ( 'NONE', #37, #3, #178 ) ;
#95 = PERSON_AND_ORGANIZATION ( #51, #16 ) ;
#96 = ORIENTED_EDGE ( 'NONE', *, *, #52, .F. ) ;
#97 = APPROVAL ( #168, 'UNSPECIFIED' ) ;
#98 = AXIS2_PLACEMENT_3D ( 'NONE', #88, #147, #5 ) ;
#99 = ORIENTED_EDGE ( 'NONE', *, *, #201, .F. ) ;
#100 = DIRECTION ( 'NONE',  ( 1.000000000000000000, 0.000000000000000000, 0.000000000000000000 ) ) ;
#101 = CARTESIAN_POINT ( 'NONE',  ( 12.69999999999999929, 1.555301434917138433E-15, 0.000000000000000000 ) ) ;
#102 =( NAMED_UNIT ( * ) PLANE_ANGLE_UNIT ( ) SI_UNIT ( $, .RADIAN. ) );
#103 = LOCAL_TIME ( 13, 51, 50.00000000000000000, #60 ) ;
#104 = DIRECTION ( 'NONE',  ( 1.224646799147353207E-16, -1.000000000000000000, 0.000000000000000000 ) ) ;
#105 = CYLINDRICAL_SURFACE ( 'NONE', #142, 12.69999999999999929 ) ;
#106 = SECURITY_CLASSIFICATION_LEVEL ( 'unclassified' ) ;
#107 = CARTESIAN_POINT ( 'NONE',  ( 0.000000000000000000, 0.000000000000000000, 0.000000000000000000 ) ) ;
#108 = CC_DESIGN_DATE_AND_TIME_ASSIGNMENT ( #185, #137, ( #90 ) ) ;
#109 =( NAMED_UNIT ( * ) SI_UNIT ( $, .STERADIAN. ) SOLID_ANGLE_UNIT ( ) );
#110 = MANIFOLD_SOLID_BREP ( 'Cut-Revolve1', #171 ) ;
#111 = PERSON_AND_ORGANIZATION ( #51, #16 ) ;
#112 = AXIS2_PLACEMENT_3D ( 'NONE', #175, #130, #100 ) ;
#113 = CALENDAR_DATE ( 2021, 25, 2 ) ;
#114 = ORIENTED_EDGE ( 'NONE', *, *, #201, .T. ) ;
#115 = LOCAL_TIME ( 13, 51, 50.00000000000000000, #124 ) ;
#116 = DIRECTION ( 'NONE',  ( 0.000000000000000000, 0.000000000000000000, 1.000000000000000000 ) ) ;
#117 = CARTESIAN_POINT ( 'NONE',  ( 0.000000000000000000, 0.000000000000000000, 0.000000000000000000 ) ) ;
#118 = CC_DESIGN_APPROVAL ( #68, ( #90 ) ) ;
#119 = FACE_OUTER_BOUND ( 'NONE', #188, .T. ) ;
#120 = CC_DESIGN_APPROVAL ( #97, ( #132 ) ) ;
#121 = CC_DESIGN_DATE_AND_TIME_ASSIGNMENT ( #75, #172, ( #132 ) ) ;
#122 = CARTESIAN_POINT ( 'NONE',  ( 7.459310946700270506E-14, 0.000000000000000000, 6.000000000000005329 ) ) ;
#123 = APPROVAL_ROLE ( '' ) ;
#124 = COORDINATED_UNIVERSAL_TIME_OFFSET ( 2, 0, .AHEAD. ) ;
#125 = DATE_AND_TIME ( #92, #115 ) ;
#126 = AXIS2_PLACEMENT_3D ( 'NONE', #8, #71, #116 ) ;
#127 = ADVANCED_FACE ( 'NONE', ( #69 ), #105, .T. ) ;
#128 = LOCAL_TIME ( 13, 51, 50.00000000000000000, #39 ) ;
#129 = APPLICATION_CONTEXT ( 'configuration controlled 3d designs of mechanical parts and assemblies' ) ;
#130 = DIRECTION ( 'NONE',  ( -0.000000000000000000, -0.000000000000000000, -1.000000000000000000 ) ) ;
#131 = CARTESIAN_POINT ( 'NONE',  ( 0.000000000000000000, 0.000000000000000000, 6.000000000000000000 ) ) ;
#132 = PRODUCT_DEFINITION ( 'UNKNOWN', '', #63, #84 ) ;
#133 = LINE ( 'NONE', #21, #79 ) ;
#134 = DIRECTION ( 'NONE',  ( -0.000000000000000000, -0.000000000000000000, -1.000000000000000000 ) ) ;
#135 = DIRECTION ( 'NONE',  ( 0.000000000000000000, 0.000000000000000000, 1.000000000000000000 ) ) ;
#136 = APPROVAL_PERSON_ORGANIZATION ( #25, #31, #123 ) ;
#137 = DATE_TIME_ROLE ( 'classification_date' ) ;
#138 = COORDINATED_UNIVERSAL_TIME_OFFSET ( 2, 0, .AHEAD. ) ;
#139 = AXIS2_PLACEMENT_3D ( 'NONE', #32, #104, #23 ) ;
#140 = ORIENTED_EDGE ( 'NONE', *, *, #160, .T. ) ;
#141 = ADVANCED_FACE ( 'NONE', ( #119 ), #89, .F. ) ;
#142 = AXIS2_PLACEMENT_3D ( 'NONE', #19, #70, #6 ) ;
#143 = ORIENTED_EDGE ( 'NONE', *, *, #184, .F. ) ;
#144 = DIRECTION ( 'NONE',  ( 1.000000000000000000, 0.000000000000000000, -0.000000000000000000 ) ) ;
#145 = CIRCLE ( 'NONE', #139, 599.9999999999998863 ) ;
#146 = SPHERICAL_SURFACE ( 'NONE', #98, 599.9999999999998863 ) ;
#147 = DIRECTION ( 'NONE',  ( 0.000000000000000000, -1.000000000000000000, -0.000000000000000000 ) ) ;
#148 = DIRECTION ( 'NONE',  ( 1.000000000000000000, 0.000000000000000000, 0.000000000000000000 ) ) ;
#149 =( GEOMETRIC_REPRESENTATION_CONTEXT ( 3 ) GLOBAL_UNCERTAINTY_ASSIGNED_CONTEXT ( ( #47 ) ) GLOBAL_UNIT_ASSIGNED_CONTEXT ( ( #192, #102, #109 ) ) REPRESENTATION_CONTEXT ( 'NONE', 'WORKASPACE' ) );
#150 = SHAPE_DEFINITION_REPRESENTATION ( #57, #196 ) ;
#151 = LOCAL_TIME ( 13, 51, 50.00000000000000000, #42 ) ;
#152 = APPROVAL_ROLE ( '' ) ;
#153 = PERSON_AND_ORGANIZATION ( #51, #16 ) ;
#154 = APPROVAL_PERSON_ORGANIZATION ( #111, #97, #152 ) ;
#155 = APPROVAL_STATUS ( 'not_yet_approved' ) ;
#156 = CC_DESIGN_PERSON_AND_ORGANIZATION_ASSIGNMENT ( #153, #55, ( #132 ) ) ;
#157 = CALENDAR_DATE ( 2021, 25, 2 ) ;
#158 = FACE_OUTER_BOUND ( 'NONE', #2, .T. ) ;
#159 = LOCAL_TIME ( 13, 51, 50.00000000000000000, #138 ) ;
#160 = EDGE_CURVE ( 'NONE', #173, #67, #186, .T. ) ;
#161 = DIRECTION ( 'NONE',  ( -0.000000000000000000, -0.000000000000000000, -1.000000000000000000 ) ) ;
#162 = APPLICATION_CONTEXT ( 'configuration controlled 3d designs of mechanical parts and assemblies' ) ;
#163 = LINE ( 'NONE', #194, #179 ) ;
#164 = CYLINDRICAL_SURFACE ( 'NONE', #41, 12.69999999999999929 ) ;
#165 = PERSON_AND_ORGANIZATION ( #51, #16 ) ;
#166 = AXIS2_PLACEMENT_3D ( 'NONE', #117, #176, #33 ) ;
#167 = MECHANICAL_CONTEXT ( 'NONE', #162, 'mechanical' ) ;
#168 = APPROVAL_STATUS ( 'not_yet_approved' ) ;
#169 = APPROVAL_STATUS ( 'not_yet_approved' ) ;
#170 = EDGE_CURVE ( 'NONE', #173, #66, #10, .T. ) ;
#171 = CLOSED_SHELL ( 'NONE', ( #61, #36, #127, #85, #141 ) ) ;
#172 = DATE_TIME_ROLE ( 'creation_date' ) ;
#173 = VERTEX_POINT ( 'NONE', #191 ) ;
#174 = AXIS2_PLACEMENT_3D ( 'NONE', #86, #4, #34 ) ;
#175 = CARTESIAN_POINT ( 'NONE',  ( 7.459310946700270506E-14, 0.000000000000000000, 6.000000000000005329 ) ) ;
#176 = DIRECTION ( 'NONE',  ( 0.000000000000000000, 0.000000000000000000, 1.000000000000000000 ) ) ;
#177 = CC_DESIGN_PERSON_AND_ORGANIZATION_ASSIGNMENT ( #165, #91, ( #90 ) ) ;
#178 = DIRECTION ( 'NONE',  ( 1.000000000000000000, 0.000000000000000000, 0.000000000000000000 ) ) ;
#179 = VECTOR ( 'NONE', #181, 1000.000000000000000 ) ;
#180 = FACE_OUTER_BOUND ( 'NONE', #81, .T. ) ;
#181 = DIRECTION ( 'NONE',  ( -0.000000000000000000, -0.000000000000000000, -1.000000000000000000 ) ) ;
#182 = PERSON_AND_ORGANIZATION_ROLE ( 'design_supplier' ) ;
#183 = APPROVAL_DATE_TIME ( #125, #97 ) ;
#184 = EDGE_CURVE ( 'NONE', #199, #30, #58, .T. ) ;
#185 = DATE_AND_TIME ( #11, #128 ) ;
#186 = CIRCLE ( 'NONE', #126, 599.9999999999998863 ) ;
#187 = ORIENTED_EDGE ( 'NONE', *, *, #170, .T. ) ;
#188 = EDGE_LOOP ( 'NONE', ( #96, #80, #140 ) ) ;
#189 = CC_DESIGN_PERSON_AND_ORGANIZATION_ASSIGNMENT ( #56, #29, ( #59 ) ) ;
#190 = ORIENTED_EDGE ( 'NONE', *, *, #22, .F. ) ;
#191 = CARTESIAN_POINT ( 'NONE',  ( 12.69999999999494023, 1.555301434916828805E-15, 6.000000000000005329 ) ) ;
#192 =( LENGTH_UNIT ( ) NAMED_UNIT ( * ) SI_UNIT ( .MILLI., .METRE. ) );
#193 = CARTESIAN_POINT ( 'NONE',  ( 1.113325134414233000E-13, 0.000000000000000000, 5.865576608626632549 ) ) ;
#194 = CARTESIAN_POINT ( 'NONE',  ( -12.69999999999999929, 0.000000000000000000, 6.000000000000000000 ) ) ;
#195 = PERSON_AND_ORGANIZATION ( #51, #16 ) ;
#196 = ADVANCED_BREP_SHAPE_REPRESENTATION ( '010-1212E_UVFS_PCV_window', ( #110, #7 ), #149 ) ;
#197 = DATE_AND_TIME ( #73, #159 ) ;
#198 = ORIENTED_EDGE ( 'NONE', *, *, #76, .T. ) ;
#199 = VERTEX_POINT ( 'NONE', #101 ) ;
#200 = APPROVAL_PERSON_ORGANIZATION ( #95, #68, #12 ) ;
#201 = EDGE_CURVE ( 'NONE', #30, #199, #35, .T. ) ;
ENDSEC;
END-ISO-10303-21;
