ISO-10303-21;
HEADER;
FILE_DESCRIPTION (( 'STEP AP203' ),
    '1' );
FILE_NAME ('010-1211E_UVFS_PCV_window.STEP',
    '2021-02-25T11:51:23',
    ( '' ),
    ( '' ),
    'SwSTEP 2.0',
    'SolidWorks 2019',
    '' );
FILE_SCHEMA (( 'CONFIG_CONTROL_DESIGN' ));
ENDSEC;

DATA;
#1 = PERSON_AND_ORGANIZATION ( #102, #10 ) ;
#2 = CARTESIAN_POINT ( 'NONE',  ( 0.000000000000000000, 0.000000000000000000, 6.000000000000000000 ) ) ;
#3 = VERTEX_POINT ( 'NONE', #155 ) ;
#4 = CALENDAR_DATE ( 2021, 25, 2 ) ;
#5 = EDGE_LOOP ( 'NONE', ( #21, #162, #97 ) ) ;
#6 = DIRECTION ( 'NONE',  ( -0.000000000000000000, -0.000000000000000000, -1.000000000000000000 ) ) ;
#7 = APPROVAL ( #187, 'UNSPECIFIED' ) ;
#8 = COORDINATED_UNIVERSAL_TIME_OFFSET ( 2, 0, .AHEAD. ) ;
#9 = CARTESIAN_POINT ( 'NONE',  ( 4.510281037539698445E-14, 0.000000000000000000, 355.7695098203958537 ) ) ;
#10 = ORGANIZATION ( 'UNSPECIFIED', 'UNSPECIFIED', '' ) ;
#11 = CIRCLE ( 'NONE', #53, 350.0000000000000000 ) ;
#12 = EDGE_CURVE ( 'NONE', #127, #63, #70, .T. ) ;
#13 = LOCAL_TIME ( 13, 51, 23.00000000000000000, #8 ) ;
#14 = FACE_OUTER_BOUND ( 'NONE', #5, .T. ) ;
#15 = CARTESIAN_POINT ( 'NONE',  ( 0.000000000000000000, 0.000000000000000000, 6.000000000000000000 ) ) ;
#16 = CALENDAR_DATE ( 2021, 25, 2 ) ;
#17 = CARTESIAN_POINT ( 'NONE',  ( -12.69999999999999929, 0.000000000000000000, 0.000000000000000000 ) ) ;
#18 = DATE_AND_TIME ( #4, #152 ) ;
#19 = ORIENTED_EDGE ( 'NONE', *, *, #55, .F. ) ;
#20 = DIRECTION ( 'NONE',  ( 1.000000000000000000, 0.000000000000000000, 0.000000000000000000 ) ) ;
#21 = ORIENTED_EDGE ( 'NONE', *, *, #151, .F. ) ;
#22 = CARTESIAN_POINT ( 'NONE',  ( 6.653412936047567325E-14, 0.000000000000000000, 5.769509820395867905 ) ) ;
#23 = VECTOR ( 'NONE', #122, 1000.000000000000000 ) ;
#24 = ADVANCED_FACE ( 'NONE', ( #14 ), #114, .F. ) ;
#25 = APPLICATION_PROTOCOL_DEFINITION ( 'international standard', 'config_control_design', 1994, #37 ) ;
#26 = PRODUCT_DEFINITION_SHAPE ( 'NONE', 'NONE',  #169 ) ;
#27 = SHAPE_DEFINITION_REPRESENTATION ( #26, #104 ) ;
#28 = PERSON_AND_ORGANIZATION_ROLE ( 'design_supplier' ) ;
#29 = ADVANCED_FACE ( 'NONE', ( #61 ), #30, .T. ) ;
#30 = CYLINDRICAL_SURFACE ( 'NONE', #89, 12.69999999999999929 ) ;
#31 = PERSON_AND_ORGANIZATION ( #102, #10 ) ;
#32 = CALENDAR_DATE ( 2021, 25, 2 ) ;
#33 = CARTESIAN_POINT ( 'NONE',  ( -12.69999999999973817, 0.000000000000000000, 6.000000000000005329 ) ) ;
#34 = PERSON_AND_ORGANIZATION_ROLE ( 'creator' ) ;
#35 = LINE ( 'NONE', #83, #170 ) ;
#36 = APPROVAL_PERSON_ORGANIZATION ( #1, #138, #108 ) ;
#37 = APPLICATION_CONTEXT ( 'configuration controlled 3d designs of mechanical parts and assemblies' ) ;
#38 =( NAMED_UNIT ( * ) SI_UNIT ( $, .STERADIAN. ) SOLID_ANGLE_UNIT ( ) );
#39 = CC_DESIGN_APPROVAL ( #7, ( #169 ) ) ;
#40 = ADVANCED_FACE ( 'NONE', ( #76 ), #42, .F. ) ;
#41 = CIRCLE ( 'NONE', #149, 349.9999999999999432 ) ;
#42 = SPHERICAL_SURFACE ( 'NONE', #93, 350.0000000000000000 ) ;
#43 = CARTESIAN_POINT ( 'NONE',  ( 12.69999999999982698, 1.555301434917128177E-15, 6.000000000000005329 ) ) ;
#44 = ADVANCED_FACE ( 'NONE', ( #91 ), #56, .T. ) ;
#45 = COORDINATED_UNIVERSAL_TIME_OFFSET ( 2, 0, .AHEAD. ) ;
#46 = DIRECTION ( 'NONE',  ( -0.000000000000000000, -0.000000000000000000, -1.000000000000000000 ) ) ;
#47 = ORIENTED_EDGE ( 'NONE', *, *, #151, .T. ) ;
#48 = DIRECTION ( 'NONE',  ( 1.224646799147353207E-16, -1.000000000000000000, 0.000000000000000000 ) ) ;
#49 = APPROVAL_DATE_TIME ( #115, #171 ) ;
#50 = CC_DESIGN_SECURITY_CLASSIFICATION ( #58, ( #106 ) ) ;
#51 = CALENDAR_DATE ( 2021, 25, 2 ) ;
#52 = DIRECTION ( 'NONE',  ( 0.000000000000000000, -1.000000000000000000, -0.000000000000000000 ) ) ;
#53 = AXIS2_PLACEMENT_3D ( 'NONE', #137, #48, #172 ) ;
#54 = ORIENTED_EDGE ( 'NONE', *, *, #88, .T. ) ;
#55 = EDGE_CURVE ( 'NONE', #63, #156, #11, .T. ) ;
#56 = CYLINDRICAL_SURFACE ( 'NONE', #180, 12.69999999999999929 ) ;
#57 = COORDINATED_UNIVERSAL_TIME_OFFSET ( 2, 0, .AHEAD. ) ;
#58 = SECURITY_CLASSIFICATION ( '', '', #176 ) ;
#59 = DIRECTION ( 'NONE',  ( 0.000000000000000000, 0.000000000000000000, 1.000000000000000000 ) ) ;
#60 = DATE_TIME_ROLE ( 'classification_date' ) ;
#61 = FACE_OUTER_BOUND ( 'NONE', #82, .T. ) ;
#62 = APPROVAL_STATUS ( 'not_yet_approved' ) ;
#63 = VERTEX_POINT ( 'NONE', #33 ) ;
#64 = DIRECTION ( 'NONE',  ( 1.000000000000000000, 0.000000000000000000, 0.000000000000000000 ) ) ;
#65 = DIRECTION ( 'NONE',  ( 1.000000000000000000, 0.000000000000000000, 0.000000000000000000 ) ) ;
#66 = ORIENTED_EDGE ( 'NONE', *, *, #88, .F. ) ;
#67 = EDGE_CURVE ( 'NONE', #63, #92, #35, .T. ) ;
#68 = EDGE_CURVE ( 'NONE', #127, #156, #41, .T. ) ;
#69 = DIRECTION ( 'NONE',  ( 0.000000000000000000, 0.000000000000000000, 1.000000000000000000 ) ) ;
#70 = CIRCLE ( 'NONE', #196, 12.69999999999978257 ) ;
#71 = CIRCLE ( 'NONE', #129, 12.69999999999999929 ) ;
#72 = CC_DESIGN_PERSON_AND_ORGANIZATION_ASSIGNMENT ( #126, #34, ( #106 ) ) ;
#73 = EDGE_LOOP ( 'NONE', ( #78, #95, #141, #54 ) ) ;
#74 = AXIS2_PLACEMENT_3D ( 'NONE', #197, #124, #20 ) ;
#75 = DIRECTION ( 'NONE',  ( -0.000000000000000000, -0.000000000000000000, -1.000000000000000000 ) ) ;
#76 = FACE_OUTER_BOUND ( 'NONE', #116, .T. ) ;
#77 = DATE_AND_TIME ( #16, #13 ) ;
#78 = ORIENTED_EDGE ( 'NONE', *, *, #188, .F. ) ;
#79 = DATE_AND_TIME ( #51, #119 ) ;
#80 = FACE_OUTER_BOUND ( 'NONE', #177, .T. ) ;
#81 = APPROVAL_ROLE ( '' ) ;
#82 = EDGE_LOOP ( 'NONE', ( #47, #121, #201, #159 ) ) ;
#83 = CARTESIAN_POINT ( 'NONE',  ( -12.69999999999999929, 0.000000000000000000, 6.000000000000000000 ) ) ;
#84 = PRODUCT_RELATED_PRODUCT_CATEGORY ( 'detail', '', ( #167 ) ) ;
#85 = LINE ( 'NONE', #146, #23 ) ;
#86 = CC_DESIGN_APPROVAL ( #171, ( #106 ) ) ;
#87 = CIRCLE ( 'NONE', #113, 12.69999999999978257 ) ;
#88 = EDGE_CURVE ( 'NONE', #92, #3, #164, .T. ) ;
#89 = AXIS2_PLACEMENT_3D ( 'NONE', #15, #75, #107 ) ;
#90 = UNCERTAINTY_MEASURE_WITH_UNIT (LENGTH_MEASURE( 1.000000000000000082E-05 ), #175, 'distance_accuracy_value', 'NONE');
#91 = FACE_OUTER_BOUND ( 'NONE', #73, .T. ) ;
#92 = VERTEX_POINT ( 'NONE', #17 ) ;
#93 = AXIS2_PLACEMENT_3D ( 'NONE', #139, #52, #157 ) ;
#94 = PERSON_AND_ORGANIZATION_ROLE ( 'classification_officer' ) ;
#95 = ORIENTED_EDGE ( 'NONE', *, *, #12, .T. ) ;
#96 = PLANE ( 'NONE',  #150 ) ;
#97 = ORIENTED_EDGE ( 'NONE', *, *, #68, .F. ) ;
#98 = DIRECTION ( 'NONE',  ( 0.000000000000000000, 0.000000000000000000, 1.000000000000000000 ) ) ;
#99 = PERSON_AND_ORGANIZATION ( #102, #10 ) ;
#100 = LOCAL_TIME ( 13, 51, 23.00000000000000000, #110 ) ;
#101 = CC_DESIGN_PERSON_AND_ORGANIZATION_ASSIGNMENT ( #31, #140, ( #169 ) ) ;
#102 = PERSON ( 'UNSPECIFIED', 'UNSPECIFIED', 'UNSPECIFIED', ('UNSPECIFIED'), ('UNSPECIFIED'), ('UNSPECIFIED') ) ;
#103 = AXIS2_PLACEMENT_3D ( 'NONE', #198, #69, #199 ) ;
#104 = ADVANCED_BREP_SHAPE_REPRESENTATION ( '010-1211E_UVFS_PCV_window', ( #186, #103 ), #135 ) ;
#105 = CLOSED_SHELL ( 'NONE', ( #24, #29, #44, #148, #40 ) ) ;
#106 = PRODUCT_DEFINITION_FORMATION_WITH_SPECIFIED_SOURCE ( 'ANY', '', #167, .NOT_KNOWN. ) ;
#107 = DIRECTION ( 'NONE',  ( -1.000000000000000000, 0.000000000000000000, 0.000000000000000000 ) ) ;
#108 = APPROVAL_ROLE ( '' ) ;
#109 = CARTESIAN_POINT ( 'NONE',  ( 0.000000000000000000, 0.000000000000000000, 0.000000000000000000 ) ) ;
#110 = COORDINATED_UNIVERSAL_TIME_OFFSET ( 2, 0, .AHEAD. ) ;
#111 = CARTESIAN_POINT ( 'NONE',  ( 0.000000000000000000, 0.000000000000000000, 0.000000000000000000 ) ) ;
#112 = PERSON_AND_ORGANIZATION ( #102, #10 ) ;
#113 = AXIS2_PLACEMENT_3D ( 'NONE', #181, #6, #163 ) ;
#114 = SPHERICAL_SURFACE ( 'NONE', #74, 350.0000000000000000 ) ;
#115 = DATE_AND_TIME ( #143, #100 ) ;
#116 = EDGE_LOOP ( 'NONE', ( #19, #192, #144 ) ) ;
#117 = DIRECTION ( 'NONE',  ( 0.000000000000000000, 0.000000000000000000, 1.000000000000000000 ) ) ;
#118 = AXIS2_PLACEMENT_3D ( 'NONE', #111, #59, #65 ) ;
#119 = LOCAL_TIME ( 13, 51, 23.00000000000000000, #57 ) ;
#120 = CC_DESIGN_PERSON_AND_ORGANIZATION_ASSIGNMENT ( #125, #28, ( #106 ) ) ;
#121 = ORIENTED_EDGE ( 'NONE', *, *, #188, .T. ) ;
#122 = DIRECTION ( 'NONE',  ( -0.000000000000000000, -0.000000000000000000, -1.000000000000000000 ) ) ;
#123 = LOCAL_TIME ( 13, 51, 23.00000000000000000, #158 ) ;
#124 = DIRECTION ( 'NONE',  ( 0.000000000000000000, -1.000000000000000000, -0.000000000000000000 ) ) ;
#125 = PERSON_AND_ORGANIZATION ( #102, #10 ) ;
#126 = PERSON_AND_ORGANIZATION ( #102, #10 ) ;
#127 = VERTEX_POINT ( 'NONE', #43 ) ;
#128 = APPROVAL_STATUS ( 'not_yet_approved' ) ;
#129 = AXIS2_PLACEMENT_3D ( 'NONE', #109, #189, #64 ) ;
#130 = CARTESIAN_POINT ( 'NONE',  ( 0.000000000000000000, 0.000000000000000000, 0.000000000000000000 ) ) ;
#131 = PERSON_AND_ORGANIZATION_ROLE ( 'design_owner' ) ;
#132 = PERSON_AND_ORGANIZATION ( #102, #10 ) ;
#133 =( NAMED_UNIT ( * ) PLANE_ANGLE_UNIT ( ) SI_UNIT ( $, .RADIAN. ) );
#134 = APPROVAL_PERSON_ORGANIZATION ( #132, #7, #81 ) ;
#135 =( GEOMETRIC_REPRESENTATION_CONTEXT ( 3 ) GLOBAL_UNCERTAINTY_ASSIGNED_CONTEXT ( ( #90 ) ) GLOBAL_UNIT_ASSIGNED_CONTEXT ( ( #175, #133, #38 ) ) REPRESENTATION_CONTEXT ( 'NONE', 'WORKASPACE' ) );
#136 = DATE_AND_TIME ( #32, #123 ) ;
#137 = CARTESIAN_POINT ( 'NONE',  ( 4.510281037539698445E-14, 0.000000000000000000, 355.7695098203958537 ) ) ;
#138 = APPROVAL ( #128, 'UNSPECIFIED' ) ;
#139 = CARTESIAN_POINT ( 'NONE',  ( 4.510281037539698445E-14, 0.000000000000000000, 355.7695098203958537 ) ) ;
#140 = PERSON_AND_ORGANIZATION_ROLE ( 'creator' ) ;
#141 = ORIENTED_EDGE ( 'NONE', *, *, #67, .T. ) ;
#142 = DIRECTION ( 'NONE',  ( 0.000000000000000000, 1.000000000000000000, -0.000000000000000000 ) ) ;
#143 = CALENDAR_DATE ( 2021, 25, 2 ) ;
#144 = ORIENTED_EDGE ( 'NONE', *, *, #68, .T. ) ;
#145 = APPROVAL_PERSON_ORGANIZATION ( #182, #171, #161 ) ;
#146 = CARTESIAN_POINT ( 'NONE',  ( 12.69999999999999929, 1.555301434917138433E-15, 6.000000000000000000 ) ) ;
#147 = APPLICATION_CONTEXT ( 'configuration controlled 3d designs of mechanical parts and assemblies' ) ;
#148 = ADVANCED_FACE ( 'NONE', ( #80 ), #96, .F. ) ;
#149 = AXIS2_PLACEMENT_3D ( 'NONE', #9, #142, #98 ) ;
#150 = AXIS2_PLACEMENT_3D ( 'NONE', #130, #117, #184 ) ;
#151 = EDGE_CURVE ( 'NONE', #63, #127, #87, .T. ) ;
#152 = LOCAL_TIME ( 13, 51, 23.00000000000000000, #45 ) ;
#153 = DIRECTION ( 'NONE',  ( -0.000000000000000000, -0.000000000000000000, -1.000000000000000000 ) ) ;
#154 = CC_DESIGN_PERSON_AND_ORGANIZATION_ASSIGNMENT ( #99, #131, ( #167 ) ) ;
#155 = CARTESIAN_POINT ( 'NONE',  ( 12.69999999999999929, 1.555301434917138433E-15, 0.000000000000000000 ) ) ;
#156 = VERTEX_POINT ( 'NONE', #22 ) ;
#157 = DIRECTION ( 'NONE',  ( 1.000000000000000000, 0.000000000000000000, 0.000000000000000000 ) ) ;
#158 = COORDINATED_UNIVERSAL_TIME_OFFSET ( 2, 0, .AHEAD. ) ;
#159 = ORIENTED_EDGE ( 'NONE', *, *, #67, .F. ) ;
#160 = CARTESIAN_POINT ( 'NONE',  ( 4.510281037539698445E-14, 0.000000000000000000, 6.000000000000005329 ) ) ;
#161 = APPROVAL_ROLE ( '' ) ;
#162 = ORIENTED_EDGE ( 'NONE', *, *, #55, .T. ) ;
#163 = DIRECTION ( 'NONE',  ( 1.000000000000000000, 0.000000000000000000, 0.000000000000000000 ) ) ;
#164 = CIRCLE ( 'NONE', #118, 12.69999999999999929 ) ;
#165 = CC_DESIGN_APPROVAL ( #138, ( #58 ) ) ;
#166 = APPLICATION_PROTOCOL_DEFINITION ( 'international standard', 'config_control_design', 1994, #147 ) ;
#167 = PRODUCT ( '010-1211E_UVFS_PCV_window', '010-1211E_UVFS_PCV_window', '', ( #185 ) ) ;
#168 = DESIGN_CONTEXT ( 'detailed design', #147, 'design' ) ;
#169 = PRODUCT_DEFINITION ( 'UNKNOWN', '', #106, #168 ) ;
#170 = VECTOR ( 'NONE', #46, 1000.000000000000000 ) ;
#171 = APPROVAL ( #62, 'UNSPECIFIED' ) ;
#172 = DIRECTION ( 'NONE',  ( 1.000000000000000000, 1.224646799147353207E-16, 0.000000000000000000 ) ) ;
#173 = CC_DESIGN_DATE_AND_TIME_ASSIGNMENT ( #136, #60, ( #58 ) ) ;
#174 = APPROVAL_DATE_TIME ( #79, #138 ) ;
#175 =( LENGTH_UNIT ( ) NAMED_UNIT ( * ) SI_UNIT ( .MILLI., .METRE. ) );
#176 = SECURITY_CLASSIFICATION_LEVEL ( 'unclassified' ) ;
#177 = EDGE_LOOP ( 'NONE', ( #66, #179 ) ) ;
#178 = APPROVAL_DATE_TIME ( #77, #7 ) ;
#179 = ORIENTED_EDGE ( 'NONE', *, *, #195, .F. ) ;
#180 = AXIS2_PLACEMENT_3D ( 'NONE', #2, #191, #190 ) ;
#181 = CARTESIAN_POINT ( 'NONE',  ( 4.510281037539698445E-14, 0.000000000000000000, 6.000000000000005329 ) ) ;
#182 = PERSON_AND_ORGANIZATION ( #102, #10 ) ;
#183 = CC_DESIGN_PERSON_AND_ORGANIZATION_ASSIGNMENT ( #112, #94, ( #58 ) ) ;
#184 = DIRECTION ( 'NONE',  ( 1.000000000000000000, 0.000000000000000000, -0.000000000000000000 ) ) ;
#185 = MECHANICAL_CONTEXT ( 'NONE', #37, 'mechanical' ) ;
#186 = MANIFOLD_SOLID_BREP ( 'Cut-Revolve1', #105 ) ;
#187 = APPROVAL_STATUS ( 'not_yet_approved' ) ;
#188 = EDGE_CURVE ( 'NONE', #127, #3, #85, .T. ) ;
#189 = DIRECTION ( 'NONE',  ( 0.000000000000000000, 0.000000000000000000, 1.000000000000000000 ) ) ;
#190 = DIRECTION ( 'NONE',  ( -1.000000000000000000, 0.000000000000000000, 0.000000000000000000 ) ) ;
#191 = DIRECTION ( 'NONE',  ( -0.000000000000000000, -0.000000000000000000, -1.000000000000000000 ) ) ;
#192 = ORIENTED_EDGE ( 'NONE', *, *, #12, .F. ) ;
#193 = DIRECTION ( 'NONE',  ( 1.000000000000000000, 0.000000000000000000, 0.000000000000000000 ) ) ;
#194 = DATE_TIME_ROLE ( 'creation_date' ) ;
#195 = EDGE_CURVE ( 'NONE', #3, #92, #71, .T. ) ;
#196 = AXIS2_PLACEMENT_3D ( 'NONE', #160, #153, #193 ) ;
#197 = CARTESIAN_POINT ( 'NONE',  ( 4.510281037539698445E-14, 0.000000000000000000, 355.7695098203958537 ) ) ;
#198 = CARTESIAN_POINT ( 'NONE',  ( 0.000000000000000000, 0.000000000000000000, 0.000000000000000000 ) ) ;
#199 = DIRECTION ( 'NONE',  ( 1.000000000000000000, 0.000000000000000000, 0.000000000000000000 ) ) ;
#200 = CC_DESIGN_DATE_AND_TIME_ASSIGNMENT ( #18, #194, ( #169 ) ) ;
#201 = ORIENTED_EDGE ( 'NONE', *, *, #195, .T. ) ;
ENDSEC;
END-ISO-10303-21;
