ISO-10303-21;
HEADER;
FILE_DESCRIPTION (( 'STEP AP203' ),
    '1' );
FILE_NAME ('010-1210E_UVFS_PCV_window.STEP',
    '2021-02-25T11:50:55',
    ( '' ),
    ( '' ),
    'SwSTEP 2.0',
    'SolidWorks 2019',
    '' );
FILE_SCHEMA (( 'CONFIG_CONTROL_DESIGN' ));
ENDSEC;

DATA;
#1 = AXIS2_PLACEMENT_3D ( 'NONE', #23, #149, #41 ) ;
#2 = ORIENTED_EDGE ( 'NONE', *, *, #51, .F. ) ;
#3 = CIRCLE ( 'NONE', #107, 12.70000000000251461 ) ;
#4 = DATE_TIME_ROLE ( 'creation_date' ) ;
#5 = PERSON_AND_ORGANIZATION ( #126, #140 ) ;
#6 = CALENDAR_DATE ( 2021, 25, 2 ) ;
#7 = EDGE_CURVE ( 'NONE', #24, #96, #83, .T. ) ;
#8 = CC_DESIGN_PERSON_AND_ORGANIZATION_ASSIGNMENT ( #55, #120, ( #13 ) ) ;
#9 = FACE_OUTER_BOUND ( 'NONE', #16, .T. ) ;
#10 = ADVANCED_FACE ( 'NONE', ( #150 ), #110, .T. ) ;
#11 = AXIS2_PLACEMENT_3D ( 'NONE', #169, #170, #29 ) ;
#12 = APPROVAL_DATE_TIME ( #158, #138 ) ;
#13 = PRODUCT_DEFINITION_FORMATION_WITH_SPECIFIED_SOURCE ( 'ANY', '', #42, .NOT_KNOWN. ) ;
#14 = ORIENTED_EDGE ( 'NONE', *, *, #167, .F. ) ;
#15 = DIRECTION ( 'NONE',  ( 1.000000000000000000, 0.000000000000000000, 0.000000000000000000 ) ) ;
#16 = EDGE_LOOP ( 'NONE', ( #85, #114 ) ) ;
#17 = CARTESIAN_POINT ( 'NONE',  ( 0.000000000000000000, 0.000000000000000000, 0.000000000000000000 ) ) ;
#18 = FACE_OUTER_BOUND ( 'NONE', #35, .T. ) ;
#19 = DATE_AND_TIME ( #104, #162 ) ;
#20 = CIRCLE ( 'NONE', #103, 12.69999999999999929 ) ;
#21 = PERSON_AND_ORGANIZATION ( #126, #140 ) ;
#22 = APPLICATION_PROTOCOL_DEFINITION ( 'international standard', 'config_control_design', 1994, #153 ) ;
#23 = CARTESIAN_POINT ( 'NONE',  ( 6.245004513516505540E-14, 0.000000000000000000, 505.8386839771407040 ) ) ;
#24 = VERTEX_POINT ( 'NONE', #93 ) ;
#25 = FACE_OUTER_BOUND ( 'NONE', #56, .T. ) ;
#26 = DIRECTION ( 'NONE',  ( 1.000000000000000000, 0.000000000000000000, 0.000000000000000000 ) ) ;
#27 = DIRECTION ( 'NONE',  ( 1.000000000000000000, 0.000000000000000000, 0.000000000000000000 ) ) ;
#28 = VECTOR ( 'NONE', #58, 1000.000000000000000 ) ;
#29 = DIRECTION ( 'NONE',  ( 1.000000000000000000, 0.000000000000000000, 0.000000000000000000 ) ) ;
#30 = VERTEX_POINT ( 'NONE', #136 ) ;
#31 = CARTESIAN_POINT ( 'NONE',  ( 0.000000000000000000, 0.000000000000000000, 0.000000000000000000 ) ) ;
#32 = EDGE_LOOP ( 'NONE', ( #97, #101, #2 ) ) ;
#33 = APPROVAL_DATE_TIME ( #86, #172 ) ;
#34 = PERSON_AND_ORGANIZATION ( #126, #140 ) ;
#35 = EDGE_LOOP ( 'NONE', ( #66, #14, #73 ) ) ;
#36 = LOCAL_TIME ( 13, 50, 55.00000000000000000, #53 ) ;
#37 = MANIFOLD_SOLID_BREP ( 'Cut-Revolve1', #67 ) ;
#38 = CARTESIAN_POINT ( 'NONE',  ( 6.245004513516505540E-14, 0.000000000000000000, 6.000000000000005329 ) ) ;
#39 = ADVANCED_BREP_SHAPE_REPRESENTATION ( '010-1210E_UVFS_PCV_window', ( #37, #113 ), #185 ) ;
#40 = AXIS2_PLACEMENT_3D ( 'NONE', #194, #52, #116 ) ;
#41 = DIRECTION ( 'NONE',  ( 1.000000000000000000, 1.224646799147353207E-16, 0.000000000000000000 ) ) ;
#42 = PRODUCT ( '010-1210E_UVFS_PCV_window', '010-1210E_UVFS_PCV_window', '', ( #117 ) ) ;
#43 = CC_DESIGN_APPROVAL ( #115, ( #92 ) ) ;
#44 = DIRECTION ( 'NONE',  ( 0.000000000000000000, 0.000000000000000000, 1.000000000000000000 ) ) ;
#45 = CYLINDRICAL_SURFACE ( 'NONE', #143, 12.69999999999999929 ) ;
#46 = LOCAL_TIME ( 13, 50, 55.00000000000000000, #71 ) ;
#47 = EDGE_CURVE ( 'NONE', #174, #189, #3, .T. ) ;
#48 = LOCAL_TIME ( 13, 50, 55.00000000000000000, #95 ) ;
#49 = ORIENTED_EDGE ( 'NONE', *, *, #167, .T. ) ;
#50 = AXIS2_PLACEMENT_3D ( 'NONE', #59, #123, #26 ) ;
#51 = EDGE_CURVE ( 'NONE', #189, #30, #124, .T. ) ;
#52 = DIRECTION ( 'NONE',  ( -0.000000000000000000, -0.000000000000000000, -1.000000000000000000 ) ) ;
#53 = COORDINATED_UNIVERSAL_TIME_OFFSET ( 2, 0, .AHEAD. ) ;
#54 = APPLICATION_PROTOCOL_DEFINITION ( 'international standard', 'config_control_design', 1994, #112 ) ;
#55 = PERSON_AND_ORGANIZATION ( #126, #140 ) ;
#56 = EDGE_LOOP ( 'NONE', ( #173, #184, #191, #81 ) ) ;
#57 = APPROVAL_ROLE ( '' ) ;
#58 = DIRECTION ( 'NONE',  ( -0.000000000000000000, -0.000000000000000000, -1.000000000000000000 ) ) ;
#59 = CARTESIAN_POINT ( 'NONE',  ( 0.000000000000000000, 0.000000000000000000, 0.000000000000000000 ) ) ;
#60 = CIRCLE ( 'NONE', #1, 500.0000000000000000 ) ;
#61 = DIRECTION ( 'NONE',  ( 1.000000000000000000, 0.000000000000000000, 0.000000000000000000 ) ) ;
#62 = DIRECTION ( 'NONE',  ( -0.000000000000000000, -0.000000000000000000, -1.000000000000000000 ) ) ;
#63 = ADVANCED_FACE ( 'NONE', ( #25 ), #45, .T. ) ;
#64 = CC_DESIGN_APPROVAL ( #138, ( #148 ) ) ;
#65 = EDGE_CURVE ( 'NONE', #174, #96, #91, .T. ) ;
#66 = ORIENTED_EDGE ( 'NONE', *, *, #89, .F. ) ;
#67 = CLOSED_SHELL ( 'NONE', ( #200, #63, #10, #105, #193 ) ) ;
#68 = PERSON_AND_ORGANIZATION ( #126, #140 ) ;
#69 = PERSON_AND_ORGANIZATION_ROLE ( 'creator' ) ;
#70 = DIRECTION ( 'NONE',  ( 0.000000000000000000, 0.000000000000000000, 1.000000000000000000 ) ) ;
#71 = COORDINATED_UNIVERSAL_TIME_OFFSET ( 2, 0, .AHEAD. ) ;
#72 = DIRECTION ( 'NONE',  ( 0.000000000000000000, 0.000000000000000000, 1.000000000000000000 ) ) ;
#73 = ORIENTED_EDGE ( 'NONE', *, *, #51, .T. ) ;
#74 = DIRECTION ( 'NONE',  ( -0.000000000000000000, -0.000000000000000000, -1.000000000000000000 ) ) ;
#75 = DIRECTION ( 'NONE',  ( -1.000000000000000000, 0.000000000000000000, 0.000000000000000000 ) ) ;
#76 = CC_DESIGN_PERSON_AND_ORGANIZATION_ASSIGNMENT ( #161, #192, ( #148 ) ) ;
#77 = APPROVAL_PERSON_ORGANIZATION ( #34, #138, #133 ) ;
#78 = CARTESIAN_POINT ( 'NONE',  ( 6.245004513516505540E-14, 0.000000000000000000, 505.8386839771407040 ) ) ;
#79 = CIRCLE ( 'NONE', #40, 12.70000000000251461 ) ;
#80 = ORIENTED_EDGE ( 'NONE', *, *, #152, .F. ) ;
#81 = ORIENTED_EDGE ( 'NONE', *, *, #65, .F. ) ;
#82 = CC_DESIGN_PERSON_AND_ORGANIZATION_ASSIGNMENT ( #98, #135, ( #92 ) ) ;
#83 = CIRCLE ( 'NONE', #50, 12.69999999999999929 ) ;
#84 = APPROVAL_STATUS ( 'not_yet_approved' ) ;
#85 = ORIENTED_EDGE ( 'NONE', *, *, #188, .F. ) ;
#86 = DATE_AND_TIME ( #6, #46 ) ;
#87 = APPROVAL_DATE_TIME ( #19, #115 ) ;
#88 = AXIS2_PLACEMENT_3D ( 'NONE', #196, #125, #44 ) ;
#89 = EDGE_CURVE ( 'NONE', #174, #30, #60, .T. ) ;
#90 = DIRECTION ( 'NONE',  ( -0.000000000000000000, -0.000000000000000000, -1.000000000000000000 ) ) ;
#91 = LINE ( 'NONE', #151, #28 ) ;
#92 = PRODUCT_DEFINITION ( 'UNKNOWN', '', #13, #146 ) ;
#93 = CARTESIAN_POINT ( 'NONE',  ( 12.69999999999999929, 1.555301434917138433E-15, 0.000000000000000000 ) ) ;
#94 = CC_DESIGN_SECURITY_CLASSIFICATION ( #148, ( #13 ) ) ;
#95 = COORDINATED_UNIVERSAL_TIME_OFFSET ( 2, 0, .AHEAD. ) ;
#96 = VERTEX_POINT ( 'NONE', #139 ) ;
#97 = ORIENTED_EDGE ( 'NONE', *, *, #47, .F. ) ;
#98 = PERSON_AND_ORGANIZATION ( #126, #140 ) ;
#99 = APPROVAL_STATUS ( 'not_yet_approved' ) ;
#100 = FACE_OUTER_BOUND ( 'NONE', #32, .T. ) ;
#101 = ORIENTED_EDGE ( 'NONE', *, *, #89, .T. ) ;
#102 = PERSON_AND_ORGANIZATION_ROLE ( 'design_owner' ) ;
#103 = AXIS2_PLACEMENT_3D ( 'NONE', #31, #70, #15 ) ;
#104 = CALENDAR_DATE ( 2021, 25, 2 ) ;
#105 = ADVANCED_FACE ( 'NONE', ( #9 ), #201, .F. ) ;
#106 = CARTESIAN_POINT ( 'NONE',  ( 12.69999999999999929, 1.555301434917138433E-15, 6.000000000000000000 ) ) ;
#107 = AXIS2_PLACEMENT_3D ( 'NONE', #38, #74, #61 ) ;
#108 = AXIS2_PLACEMENT_3D ( 'NONE', #78, #155, #27 ) ;
#109 = CARTESIAN_POINT ( 'NONE',  ( 0.000000000000000000, 0.000000000000000000, 6.000000000000000000 ) ) ;
#110 = CYLINDRICAL_SURFACE ( 'NONE', #190, 12.69999999999999929 ) ;
#111 = SPHERICAL_SURFACE ( 'NONE', #11, 500.0000000000000000 ) ;
#112 = APPLICATION_CONTEXT ( 'configuration controlled 3d designs of mechanical parts and assemblies' ) ;
#113 = AXIS2_PLACEMENT_3D ( 'NONE', #17, #72, #178 ) ;
#114 = ORIENTED_EDGE ( 'NONE', *, *, #7, .F. ) ;
#115 = APPROVAL ( #84, 'UNSPECIFIED' ) ;
#116 = DIRECTION ( 'NONE',  ( 1.000000000000000000, 0.000000000000000000, 0.000000000000000000 ) ) ;
#117 = MECHANICAL_CONTEXT ( 'NONE', #112, 'mechanical' ) ;
#118 = CARTESIAN_POINT ( 'NONE',  ( -12.70000000000245244, 0.000000000000000000, 6.000000000000005329 ) ) ;
#119 = APPROVAL_ROLE ( '' ) ;
#120 = PERSON_AND_ORGANIZATION_ROLE ( 'design_supplier' ) ;
#121 = COORDINATED_UNIVERSAL_TIME_OFFSET ( 2, 0, .AHEAD. ) ;
#122 = LINE ( 'NONE', #106, #168 ) ;
#123 = DIRECTION ( 'NONE',  ( 0.000000000000000000, 0.000000000000000000, 1.000000000000000000 ) ) ;
#124 = CIRCLE ( 'NONE', #88, 500.0000000000000000 ) ;
#125 = DIRECTION ( 'NONE',  ( 0.000000000000000000, 1.000000000000000000, -0.000000000000000000 ) ) ;
#126 = PERSON ( 'UNSPECIFIED', 'UNSPECIFIED', 'UNSPECIFIED', ('UNSPECIFIED'), ('UNSPECIFIED'), ('UNSPECIFIED') ) ;
#127 = SPHERICAL_SURFACE ( 'NONE', #108, 500.0000000000000000 ) ;
#128 =( LENGTH_UNIT ( ) NAMED_UNIT ( * ) SI_UNIT ( .MILLI., .METRE. ) );
#129 = SECURITY_CLASSIFICATION_LEVEL ( 'unclassified' ) ;
#130 = ORIENTED_EDGE ( 'NONE', *, *, #65, .T. ) ;
#131 = APPROVAL_PERSON_ORGANIZATION ( #21, #115, #57 ) ;
#132 = CALENDAR_DATE ( 2021, 25, 2 ) ;
#133 = APPROVAL_ROLE ( '' ) ;
#134 = UNCERTAINTY_MEASURE_WITH_UNIT (LENGTH_MEASURE( 1.000000000000000082E-05 ), #128, 'distance_accuracy_value', 'NONE');
#135 = PERSON_AND_ORGANIZATION_ROLE ( 'creator' ) ;
#136 = CARTESIAN_POINT ( 'NONE',  ( 9.306621511384889292E-14, 0.000000000000000000, 5.838683977140712855 ) ) ;
#137 = APPROVAL_PERSON_ORGANIZATION ( #68, #172, #119 ) ;
#138 = APPROVAL ( #99, 'UNSPECIFIED' ) ;
#139 = CARTESIAN_POINT ( 'NONE',  ( -12.69999999999999929, 0.000000000000000000, 0.000000000000000000 ) ) ;
#140 = ORGANIZATION ( 'UNSPECIFIED', 'UNSPECIFIED', '' ) ;
#141 = PRODUCT_RELATED_PRODUCT_CATEGORY ( 'detail', '', ( #42 ) ) ;
#142 = CARTESIAN_POINT ( 'NONE',  ( 12.70000000000257678, 1.555301434917454174E-15, 6.000000000000005329 ) ) ;
#143 = AXIS2_PLACEMENT_3D ( 'NONE', #109, #182, #75 ) ;
#144 = CALENDAR_DATE ( 2021, 25, 2 ) ;
#145 = COORDINATED_UNIVERSAL_TIME_OFFSET ( 2, 0, .AHEAD. ) ;
#146 = DESIGN_CONTEXT ( 'detailed design', #153, 'design' ) ;
#147 = CC_DESIGN_DATE_AND_TIME_ASSIGNMENT ( #195, #176, ( #148 ) ) ;
#148 = SECURITY_CLASSIFICATION ( '', '', #129 ) ;
#149 = DIRECTION ( 'NONE',  ( 1.224646799147353207E-16, -1.000000000000000000, 0.000000000000000000 ) ) ;
#150 = FACE_OUTER_BOUND ( 'NONE', #160, .T. ) ;
#151 = CARTESIAN_POINT ( 'NONE',  ( -12.69999999999999929, 0.000000000000000000, 6.000000000000000000 ) ) ;
#152 = EDGE_CURVE ( 'NONE', #189, #24, #122, .T. ) ;
#153 = APPLICATION_CONTEXT ( 'configuration controlled 3d designs of mechanical parts and assemblies' ) ;
#154 = LOCAL_TIME ( 13, 50, 55.00000000000000000, #145 ) ;
#155 = DIRECTION ( 'NONE',  ( 0.000000000000000000, -1.000000000000000000, -0.000000000000000000 ) ) ;
#156 = CC_DESIGN_PERSON_AND_ORGANIZATION_ASSIGNMENT ( #5, #102, ( #42 ) ) ;
#157 = CC_DESIGN_APPROVAL ( #172, ( #13 ) ) ;
#158 = DATE_AND_TIME ( #171, #48 ) ;
#159 =( NAMED_UNIT ( * ) SI_UNIT ( $, .STERADIAN. ) SOLID_ANGLE_UNIT ( ) );
#160 = EDGE_LOOP ( 'NONE', ( #80, #49, #130, #177 ) ) ;
#161 = PERSON_AND_ORGANIZATION ( #126, #140 ) ;
#162 = LOCAL_TIME ( 13, 50, 55.00000000000000000, #121 ) ;
#163 = PERSON_AND_ORGANIZATION ( #126, #140 ) ;
#164 = DIRECTION ( 'NONE',  ( 1.000000000000000000, 0.000000000000000000, -0.000000000000000000 ) ) ;
#165 = CARTESIAN_POINT ( 'NONE',  ( 0.000000000000000000, 0.000000000000000000, 0.000000000000000000 ) ) ;
#166 = CARTESIAN_POINT ( 'NONE',  ( 0.000000000000000000, 0.000000000000000000, 6.000000000000000000 ) ) ;
#167 = EDGE_CURVE ( 'NONE', #189, #174, #79, .T. ) ;
#168 = VECTOR ( 'NONE', #90, 1000.000000000000000 ) ;
#169 = CARTESIAN_POINT ( 'NONE',  ( 6.245004513516505540E-14, 0.000000000000000000, 505.8386839771407040 ) ) ;
#170 = DIRECTION ( 'NONE',  ( 0.000000000000000000, -1.000000000000000000, -0.000000000000000000 ) ) ;
#171 = CALENDAR_DATE ( 2021, 25, 2 ) ;
#172 = APPROVAL ( #175, 'UNSPECIFIED' ) ;
#173 = ORIENTED_EDGE ( 'NONE', *, *, #47, .T. ) ;
#174 = VERTEX_POINT ( 'NONE', #118 ) ;
#175 = APPROVAL_STATUS ( 'not_yet_approved' ) ;
#176 = DATE_TIME_ROLE ( 'classification_date' ) ;
#177 = ORIENTED_EDGE ( 'NONE', *, *, #188, .T. ) ;
#178 = DIRECTION ( 'NONE',  ( 1.000000000000000000, 0.000000000000000000, 0.000000000000000000 ) ) ;
#179 = DATE_AND_TIME ( #144, #154 ) ;
#180 = CC_DESIGN_PERSON_AND_ORGANIZATION_ASSIGNMENT ( #163, #69, ( #13 ) ) ;
#181 = AXIS2_PLACEMENT_3D ( 'NONE', #165, #186, #164 ) ;
#182 = DIRECTION ( 'NONE',  ( -0.000000000000000000, -0.000000000000000000, -1.000000000000000000 ) ) ;
#183 = PRODUCT_DEFINITION_SHAPE ( 'NONE', 'NONE',  #92 ) ;
#184 = ORIENTED_EDGE ( 'NONE', *, *, #152, .T. ) ;
#185 =( GEOMETRIC_REPRESENTATION_CONTEXT ( 3 ) GLOBAL_UNCERTAINTY_ASSIGNED_CONTEXT ( ( #134 ) ) GLOBAL_UNIT_ASSIGNED_CONTEXT ( ( #128, #198, #159 ) ) REPRESENTATION_CONTEXT ( 'NONE', 'WORKASPACE' ) );
#186 = DIRECTION ( 'NONE',  ( 0.000000000000000000, 0.000000000000000000, 1.000000000000000000 ) ) ;
#187 = SHAPE_DEFINITION_REPRESENTATION ( #183, #39 ) ;
#188 = EDGE_CURVE ( 'NONE', #96, #24, #20, .T. ) ;
#189 = VERTEX_POINT ( 'NONE', #142 ) ;
#190 = AXIS2_PLACEMENT_3D ( 'NONE', #166, #62, #199 ) ;
#191 = ORIENTED_EDGE ( 'NONE', *, *, #7, .T. ) ;
#192 = PERSON_AND_ORGANIZATION_ROLE ( 'classification_officer' ) ;
#193 = ADVANCED_FACE ( 'NONE', ( #18 ), #127, .F. ) ;
#194 = CARTESIAN_POINT ( 'NONE',  ( 6.245004513516505540E-14, 0.000000000000000000, 6.000000000000005329 ) ) ;
#195 = DATE_AND_TIME ( #132, #36 ) ;
#196 = CARTESIAN_POINT ( 'NONE',  ( 6.245004513516505540E-14, 0.000000000000000000, 505.8386839771407040 ) ) ;
#197 = CC_DESIGN_DATE_AND_TIME_ASSIGNMENT ( #179, #4, ( #92 ) ) ;
#198 =( NAMED_UNIT ( * ) PLANE_ANGLE_UNIT ( ) SI_UNIT ( $, .RADIAN. ) );
#199 = DIRECTION ( 'NONE',  ( -1.000000000000000000, 0.000000000000000000, 0.000000000000000000 ) ) ;
#200 = ADVANCED_FACE ( 'NONE', ( #100 ), #111, .F. ) ;
#201 = PLANE ( 'NONE',  #181 ) ;
ENDSEC;
END-ISO-10303-21;
