ISO-10303-21;
HEADER;
FILE_DESCRIPTION (( 'STEP AP203' ),
    '1' );
FILE_NAME ('010-1209E_UVFS_PCV_window.STEP',
    '2021-02-25T11:49:48',
    ( '' ),
    ( '' ),
    'SwSTEP 2.0',
    'SolidWorks 2019',
    '' );
FILE_SCHEMA (( 'CONFIG_CONTROL_DESIGN' ));
ENDSEC;

DATA;
#1 = ADVANCED_FACE ( 'NONE', ( #190 ), #197, .F. ) ;
#2 = ORIENTED_EDGE ( 'NONE', *, *, #142, .T. ) ;
#3 = COORDINATED_UNIVERSAL_TIME_OFFSET ( 2, 0, .AHEAD. ) ;
#4 = VERTEX_POINT ( 'NONE', #105 ) ;
#5 = DATE_AND_TIME ( #143, #151 ) ;
#6 = APPROVAL_ROLE ( '' ) ;
#7 = CARTESIAN_POINT ( 'NONE',  ( 12.69999999999928697, 1.555301434917095045E-15, 6.000000000000005329 ) ) ;
#8 = PERSON_AND_ORGANIZATION ( #182, #58 ) ;
#9 = DIRECTION ( 'NONE',  ( -1.000000000000000000, 0.000000000000000000, 0.000000000000000000 ) ) ;
#10 = ADVANCED_BREP_SHAPE_REPRESENTATION ( '010-1209E_UVFS_PCV_window', ( #36, #192 ), #62 ) ;
#11 = DIRECTION ( 'NONE',  ( 1.000000000000000000, 0.000000000000000000, 0.000000000000000000 ) ) ;
#12 = AXIS2_PLACEMENT_3D ( 'NONE', #193, #180, #11 ) ;
#13 = EDGE_CURVE ( 'NONE', #156, #48, #102, .T. ) ;
#14 = AXIS2_PLACEMENT_3D ( 'NONE', #159, #185, #128 ) ;
#15 = VECTOR ( 'NONE', #101, 1000.000000000000000 ) ;
#16 = CC_DESIGN_PERSON_AND_ORGANIZATION_ASSIGNMENT ( #57, #97, ( #91 ) ) ;
#17 = COORDINATED_UNIVERSAL_TIME_OFFSET ( 2, 0, .AHEAD. ) ;
#18 = PERSON_AND_ORGANIZATION_ROLE ( 'classification_officer' ) ;
#19 = LOCAL_TIME ( 13, 49, 48.00000000000000000, #3 ) ;
#20 = SHAPE_DEFINITION_REPRESENTATION ( #64, #10 ) ;
#21 = CYLINDRICAL_SURFACE ( 'NONE', #184, 12.69999999999999929 ) ;
#22 = CALENDAR_DATE ( 2021, 25, 2 ) ;
#23 = CARTESIAN_POINT ( 'NONE',  ( 12.69999999999999929, 1.555301434917138433E-15, 0.000000000000000000 ) ) ;
#24 =( NAMED_UNIT ( * ) SI_UNIT ( $, .STERADIAN. ) SOLID_ANGLE_UNIT ( ) );
#25 = ADVANCED_FACE ( 'NONE', ( #150 ), #59, .T. ) ;
#26 = ADVANCED_FACE ( 'NONE', ( #148 ), #21, .T. ) ;
#27 = APPLICATION_CONTEXT ( 'configuration controlled 3d designs of mechanical parts and assemblies' ) ;
#28 = ORIENTED_EDGE ( 'NONE', *, *, #171, .T. ) ;
#29 = DIRECTION ( 'NONE',  ( 1.000000000000000000, 1.224646799147353207E-16, 0.000000000000000000 ) ) ;
#30 = APPROVAL_DATE_TIME ( #162, #191 ) ;
#31 = CC_DESIGN_PERSON_AND_ORGANIZATION_ASSIGNMENT ( #8, #18, ( #47 ) ) ;
#32 = ORIENTED_EDGE ( 'NONE', *, *, #136, .T. ) ;
#33 = DIRECTION ( 'NONE',  ( 1.224646799147353207E-16, -1.000000000000000000, 0.000000000000000000 ) ) ;
#34 = DATE_AND_TIME ( #196, #170 ) ;
#35 = DIRECTION ( 'NONE',  ( 1.000000000000000000, 0.000000000000000000, 0.000000000000000000 ) ) ;
#36 = MANIFOLD_SOLID_BREP ( 'Cut-Revolve1', #45 ) ;
#37 = SECURITY_CLASSIFICATION_LEVEL ( 'unclassified' ) ;
#38 = CARTESIAN_POINT ( 'NONE',  ( 5.030698080332740574E-14, 0.000000000000000000, 405.7983366648741139 ) ) ;
#39 = PRODUCT_DEFINITION ( 'UNKNOWN', '', #91, #73 ) ;
#40 = FACE_OUTER_BOUND ( 'NONE', #112, .T. ) ;
#41 = CC_DESIGN_PERSON_AND_ORGANIZATION_ASSIGNMENT ( #195, #110, ( #39 ) ) ;
#42 = EDGE_CURVE ( 'NONE', #52, #4, #154, .T. ) ;
#43 = ORIENTED_EDGE ( 'NONE', *, *, #13, .T. ) ;
#44 = APPROVAL ( #46, 'UNSPECIFIED' ) ;
#45 = CLOSED_SHELL ( 'NONE', ( #1, #26, #25, #74, #120 ) ) ;
#46 = APPROVAL_STATUS ( 'not_yet_approved' ) ;
#47 = SECURITY_CLASSIFICATION ( '', '', #37 ) ;
#48 = VERTEX_POINT ( 'NONE', #23 ) ;
#49 = EDGE_CURVE ( 'NONE', #48, #156, #201, .T. ) ;
#50 = DIRECTION ( 'NONE',  ( -0.000000000000000000, -0.000000000000000000, -1.000000000000000000 ) ) ;
#51 = APPROVAL_STATUS ( 'not_yet_approved' ) ;
#52 = VERTEX_POINT ( 'NONE', #7 ) ;
#53 = PERSON_AND_ORGANIZATION_ROLE ( 'design_owner' ) ;
#54 = CARTESIAN_POINT ( 'NONE',  ( 0.000000000000000000, 0.000000000000000000, 0.000000000000000000 ) ) ;
#55 = DATE_TIME_ROLE ( 'creation_date' ) ;
#56 = AXIS2_PLACEMENT_3D ( 'NONE', #149, #84, #124 ) ;
#57 = PERSON_AND_ORGANIZATION ( #182, #58 ) ;
#58 = ORGANIZATION ( 'UNSPECIFIED', 'UNSPECIFIED', '' ) ;
#59 = CYLINDRICAL_SURFACE ( 'NONE', #95, 12.69999999999999929 ) ;
#60 = PERSON_AND_ORGANIZATION ( #182, #58 ) ;
#61 = AXIS2_PLACEMENT_3D ( 'NONE', #134, #100, #132 ) ;
#62 =( GEOMETRIC_REPRESENTATION_CONTEXT ( 3 ) GLOBAL_UNCERTAINTY_ASSIGNED_CONTEXT ( ( #122 ) ) GLOBAL_UNIT_ASSIGNED_CONTEXT ( ( #188, #81, #24 ) ) REPRESENTATION_CONTEXT ( 'NONE', 'WORKASPACE' ) );
#63 = VECTOR ( 'NONE', #50, 1000.000000000000000 ) ;
#64 = PRODUCT_DEFINITION_SHAPE ( 'NONE', 'NONE',  #39 ) ;
#65 = ORIENTED_EDGE ( 'NONE', *, *, #13, .F. ) ;
#66 = DIRECTION ( 'NONE',  ( 0.000000000000000000, 0.000000000000000000, 1.000000000000000000 ) ) ;
#67 = ORIENTED_EDGE ( 'NONE', *, *, #142, .F. ) ;
#68 = LINE ( 'NONE', #177, #63 ) ;
#69 = CIRCLE ( 'NONE', #56, 12.69999999999923546 ) ;
#70 = COORDINATED_UNIVERSAL_TIME_OFFSET ( 2, 0, .AHEAD. ) ;
#71 = DIRECTION ( 'NONE',  ( 0.000000000000000000, -1.000000000000000000, -0.000000000000000000 ) ) ;
#72 = MECHANICAL_CONTEXT ( 'NONE', #155, 'mechanical' ) ;
#73 = DESIGN_CONTEXT ( 'detailed design', #27, 'design' ) ;
#74 = ADVANCED_FACE ( 'NONE', ( #130 ), #194, .F. ) ;
#75 = CC_DESIGN_APPROVAL ( #99, ( #91 ) ) ;
#76 = PERSON_AND_ORGANIZATION ( #182, #58 ) ;
#77 = APPROVAL_PERSON_ORGANIZATION ( #76, #99, #147 ) ;
#78 = AXIS2_PLACEMENT_3D ( 'NONE', #54, #145, #35 ) ;
#79 = CARTESIAN_POINT ( 'NONE',  ( 0.000000000000000000, 0.000000000000000000, 0.000000000000000000 ) ) ;
#80 = EDGE_LOOP ( 'NONE', ( #174, #32, #141, #125 ) ) ;
#81 =( NAMED_UNIT ( * ) PLANE_ANGLE_UNIT ( ) SI_UNIT ( $, .RADIAN. ) );
#82 = COORDINATED_UNIVERSAL_TIME_OFFSET ( 2, 0, .AHEAD. ) ;
#83 = DIRECTION ( 'NONE',  ( -0.000000000000000000, -0.000000000000000000, -1.000000000000000000 ) ) ;
#84 = DIRECTION ( 'NONE',  ( -0.000000000000000000, -0.000000000000000000, -1.000000000000000000 ) ) ;
#85 = CC_DESIGN_PERSON_AND_ORGANIZATION_ASSIGNMENT ( #60, #53, ( #89 ) ) ;
#86 = CARTESIAN_POINT ( 'NONE',  ( 0.000000000000000000, 0.000000000000000000, 0.000000000000000000 ) ) ;
#87 = AXIS2_PLACEMENT_3D ( 'NONE', #38, #71, #94 ) ;
#88 = AXIS2_PLACEMENT_3D ( 'NONE', #86, #183, #119 ) ;
#89 = PRODUCT ( '010-1209E_UVFS_PCV_window', '010-1209E_UVFS_PCV_window', '', ( #72 ) ) ;
#90 = PRODUCT_RELATED_PRODUCT_CATEGORY ( 'detail', '', ( #89 ) ) ;
#91 = PRODUCT_DEFINITION_FORMATION_WITH_SPECIFIED_SOURCE ( 'ANY', '', #89, .NOT_KNOWN. ) ;
#92 = APPLICATION_PROTOCOL_DEFINITION ( 'international standard', 'config_control_design', 1994, #155 ) ;
#93 = CARTESIAN_POINT ( 'NONE',  ( 12.69999999999999929, 1.555301434917138433E-15, 6.000000000000000000 ) ) ;
#94 = DIRECTION ( 'NONE',  ( 1.000000000000000000, 0.000000000000000000, 0.000000000000000000 ) ) ;
#95 = AXIS2_PLACEMENT_3D ( 'NONE', #98, #118, #163 ) ;
#96 = CARTESIAN_POINT ( 'NONE',  ( -12.69999999999999929, 0.000000000000000000, 0.000000000000000000 ) ) ;
#97 = PERSON_AND_ORGANIZATION_ROLE ( 'creator' ) ;
#98 = CARTESIAN_POINT ( 'NONE',  ( 0.000000000000000000, 0.000000000000000000, 6.000000000000000000 ) ) ;
#99 = APPROVAL ( #129, 'UNSPECIFIED' ) ;
#100 = DIRECTION ( 'NONE',  ( 0.000000000000000000, 0.000000000000000000, 1.000000000000000000 ) ) ;
#101 = DIRECTION ( 'NONE',  ( -0.000000000000000000, -0.000000000000000000, -1.000000000000000000 ) ) ;
#102 = CIRCLE ( 'NONE', #61, 12.69999999999999929 ) ;
#103 = CC_DESIGN_DATE_AND_TIME_ASSIGNMENT ( #165, #144, ( #47 ) ) ;
#104 = CC_DESIGN_DATE_AND_TIME_ASSIGNMENT ( #5, #55, ( #39 ) ) ;
#105 = CARTESIAN_POINT ( 'NONE',  ( -12.69999999999918572, 0.000000000000000000, 6.000000000000005329 ) ) ;
#106 = EDGE_LOOP ( 'NONE', ( #158, #2, #200 ) ) ;
#107 = AXIS2_PLACEMENT_3D ( 'NONE', #164, #33, #29 ) ;
#108 = PERSON_AND_ORGANIZATION ( #182, #58 ) ;
#109 = ORIENTED_EDGE ( 'NONE', *, *, #42, .T. ) ;
#110 = PERSON_AND_ORGANIZATION_ROLE ( 'creator' ) ;
#111 = COORDINATED_UNIVERSAL_TIME_OFFSET ( 2, 0, .AHEAD. ) ;
#112 = EDGE_LOOP ( 'NONE', ( #67, #137, #179 ) ) ;
#113 = APPROVAL_DATE_TIME ( #34, #99 ) ;
#114 = EDGE_CURVE ( 'NONE', #4, #52, #69, .T. ) ;
#115 = DIRECTION ( 'NONE',  ( 1.000000000000000000, 0.000000000000000000, 0.000000000000000000 ) ) ;
#116 = CIRCLE ( 'NONE', #14, 400.0000000000000568 ) ;
#117 = PERSON_AND_ORGANIZATION ( #182, #58 ) ;
#118 = DIRECTION ( 'NONE',  ( -0.000000000000000000, -0.000000000000000000, -1.000000000000000000 ) ) ;
#119 = DIRECTION ( 'NONE',  ( 1.000000000000000000, 0.000000000000000000, -0.000000000000000000 ) ) ;
#120 = ADVANCED_FACE ( 'NONE', ( #40 ), #157, .F. ) ;
#121 = CIRCLE ( 'NONE', #107, 400.0000000000000000 ) ;
#122 = UNCERTAINTY_MEASURE_WITH_UNIT (LENGTH_MEASURE( 1.000000000000000082E-05 ), #188, 'distance_accuracy_value', 'NONE');
#123 = EDGE_LOOP ( 'NONE', ( #139, #109, #28, #43 ) ) ;
#124 = DIRECTION ( 'NONE',  ( 1.000000000000000000, 0.000000000000000000, 0.000000000000000000 ) ) ;
#125 = ORIENTED_EDGE ( 'NONE', *, *, #171, .F. ) ;
#126 = APPROVAL_DATE_TIME ( #161, #44 ) ;
#127 = PERSON_AND_ORGANIZATION ( #182, #58 ) ;
#128 = DIRECTION ( 'NONE',  ( 0.000000000000000000, 0.000000000000000000, 1.000000000000000000 ) ) ;
#129 = APPROVAL_STATUS ( 'not_yet_approved' ) ;
#130 = FACE_OUTER_BOUND ( 'NONE', #138, .T. ) ;
#131 = LINE ( 'NONE', #93, #15 ) ;
#132 = DIRECTION ( 'NONE',  ( 1.000000000000000000, 0.000000000000000000, 0.000000000000000000 ) ) ;
#133 = APPLICATION_PROTOCOL_DEFINITION ( 'international standard', 'config_control_design', 1994, #27 ) ;
#134 = CARTESIAN_POINT ( 'NONE',  ( 0.000000000000000000, 0.000000000000000000, 0.000000000000000000 ) ) ;
#135 = CC_DESIGN_APPROVAL ( #44, ( #39 ) ) ;
#136 = EDGE_CURVE ( 'NONE', #52, #48, #131, .T. ) ;
#137 = ORIENTED_EDGE ( 'NONE', *, *, #42, .F. ) ;
#138 = EDGE_LOOP ( 'NONE', ( #65, #176 ) ) ;
#139 = ORIENTED_EDGE ( 'NONE', *, *, #136, .F. ) ;
#140 = APPROVAL_ROLE ( '' ) ;
#141 = ORIENTED_EDGE ( 'NONE', *, *, #49, .T. ) ;
#142 = EDGE_CURVE ( 'NONE', #4, #153, #121, .T. ) ;
#143 = CALENDAR_DATE ( 2021, 25, 2 ) ;
#144 = DATE_TIME_ROLE ( 'classification_date' ) ;
#145 = DIRECTION ( 'NONE',  ( 0.000000000000000000, 0.000000000000000000, 1.000000000000000000 ) ) ;
#146 = DIRECTION ( 'NONE',  ( 1.000000000000000000, 0.000000000000000000, 0.000000000000000000 ) ) ;
#147 = APPROVAL_ROLE ( '' ) ;
#148 = FACE_OUTER_BOUND ( 'NONE', #80, .T. ) ;
#149 = CARTESIAN_POINT ( 'NONE',  ( 5.030698080332740574E-14, 0.000000000000000000, 6.000000000000005329 ) ) ;
#150 = FACE_OUTER_BOUND ( 'NONE', #123, .T. ) ;
#151 = LOCAL_TIME ( 13, 49, 48.00000000000000000, #17 ) ;
#152 = AXIS2_PLACEMENT_3D ( 'NONE', #160, #83, #115 ) ;
#153 = VERTEX_POINT ( 'NONE', #167 ) ;
#154 = CIRCLE ( 'NONE', #152, 12.69999999999923546 ) ;
#155 = APPLICATION_CONTEXT ( 'configuration controlled 3d designs of mechanical parts and assemblies' ) ;
#156 = VERTEX_POINT ( 'NONE', #96 ) ;
#157 = SPHERICAL_SURFACE ( 'NONE', #12, 400.0000000000000000 ) ;
#158 = ORIENTED_EDGE ( 'NONE', *, *, #114, .F. ) ;
#159 = CARTESIAN_POINT ( 'NONE',  ( 5.030698080332740574E-14, 0.000000000000000000, 405.7983366648741139 ) ) ;
#160 = CARTESIAN_POINT ( 'NONE',  ( 5.030698080332740574E-14, 0.000000000000000000, 6.000000000000005329 ) ) ;
#161 = DATE_AND_TIME ( #22, #19 ) ;
#162 = DATE_AND_TIME ( #178, #173 ) ;
#163 = DIRECTION ( 'NONE',  ( -1.000000000000000000, 0.000000000000000000, 0.000000000000000000 ) ) ;
#164 = CARTESIAN_POINT ( 'NONE',  ( 5.030698080332740574E-14, 0.000000000000000000, 405.7983366648741139 ) ) ;
#165 = DATE_AND_TIME ( #181, #198 ) ;
#166 = DIRECTION ( 'NONE',  ( -0.000000000000000000, -0.000000000000000000, -1.000000000000000000 ) ) ;
#167 = CARTESIAN_POINT ( 'NONE',  ( 7.479991678627446061E-14, 0.000000000000000000, 5.798336664874115698 ) ) ;
#168 = CC_DESIGN_SECURITY_CLASSIFICATION ( #47, ( #91 ) ) ;
#169 = CC_DESIGN_APPROVAL ( #191, ( #47 ) ) ;
#170 = LOCAL_TIME ( 13, 49, 48.00000000000000000, #82 ) ;
#171 = EDGE_CURVE ( 'NONE', #4, #156, #68, .T. ) ;
#172 = APPROVAL_PERSON_ORGANIZATION ( #127, #191, #6 ) ;
#173 = LOCAL_TIME ( 13, 49, 48.00000000000000000, #111 ) ;
#174 = ORIENTED_EDGE ( 'NONE', *, *, #114, .T. ) ;
#175 = EDGE_CURVE ( 'NONE', #52, #153, #116, .T. ) ;
#176 = ORIENTED_EDGE ( 'NONE', *, *, #49, .F. ) ;
#177 = CARTESIAN_POINT ( 'NONE',  ( -12.69999999999999929, 0.000000000000000000, 6.000000000000000000 ) ) ;
#178 = CALENDAR_DATE ( 2021, 25, 2 ) ;
#179 = ORIENTED_EDGE ( 'NONE', *, *, #175, .T. ) ;
#180 = DIRECTION ( 'NONE',  ( 0.000000000000000000, -1.000000000000000000, -0.000000000000000000 ) ) ;
#181 = CALENDAR_DATE ( 2021, 25, 2 ) ;
#182 = PERSON ( 'UNSPECIFIED', 'UNSPECIFIED', 'UNSPECIFIED', ('UNSPECIFIED'), ('UNSPECIFIED'), ('UNSPECIFIED') ) ;
#183 = DIRECTION ( 'NONE',  ( 0.000000000000000000, 0.000000000000000000, 1.000000000000000000 ) ) ;
#184 = AXIS2_PLACEMENT_3D ( 'NONE', #187, #166, #9 ) ;
#185 = DIRECTION ( 'NONE',  ( 0.000000000000000000, 1.000000000000000000, -0.000000000000000000 ) ) ;
#186 = PERSON_AND_ORGANIZATION_ROLE ( 'design_supplier' ) ;
#187 = CARTESIAN_POINT ( 'NONE',  ( 0.000000000000000000, 0.000000000000000000, 6.000000000000000000 ) ) ;
#188 =( LENGTH_UNIT ( ) NAMED_UNIT ( * ) SI_UNIT ( .MILLI., .METRE. ) );
#189 = CC_DESIGN_PERSON_AND_ORGANIZATION_ASSIGNMENT ( #117, #186, ( #91 ) ) ;
#190 = FACE_OUTER_BOUND ( 'NONE', #106, .T. ) ;
#191 = APPROVAL ( #51, 'UNSPECIFIED' ) ;
#192 = AXIS2_PLACEMENT_3D ( 'NONE', #79, #66, #146 ) ;
#193 = CARTESIAN_POINT ( 'NONE',  ( 5.030698080332740574E-14, 0.000000000000000000, 405.7983366648741139 ) ) ;
#194 = PLANE ( 'NONE',  #88 ) ;
#195 = PERSON_AND_ORGANIZATION ( #182, #58 ) ;
#196 = CALENDAR_DATE ( 2021, 25, 2 ) ;
#197 = SPHERICAL_SURFACE ( 'NONE', #87, 400.0000000000000000 ) ;
#198 = LOCAL_TIME ( 13, 49, 48.00000000000000000, #70 ) ;
#199 = APPROVAL_PERSON_ORGANIZATION ( #108, #44, #140 ) ;
#200 = ORIENTED_EDGE ( 'NONE', *, *, #175, .F. ) ;
#201 = CIRCLE ( 'NONE', #78, 12.69999999999999929 ) ;
ENDSEC;
END-ISO-10303-21;
