ISO-10303-21;
HEADER;
FILE_DESCRIPTION (( 'STEP AP203' ),
    '1' );
FILE_NAME ('010-1208E_UVFS_PCV_window.STEP',
    '2021-02-25T11:49:13',
    ( '' ),
    ( '' ),
    'SwSTEP 2.0',
    'SolidWorks 2019',
    '' );
FILE_SCHEMA (( 'CONFIG_CONTROL_DESIGN' ));
ENDSEC;

DATA;
#1 = APPROVAL_DATE_TIME ( #15, #112 ) ;
#2 = ORIENTED_EDGE ( 'NONE', *, *, #9, .F. ) ;
#3 = DIRECTION ( 'NONE',  ( 1.000000000000000000, 0.000000000000000000, 0.000000000000000000 ) ) ;
#4 = ADVANCED_FACE ( 'NONE', ( #50 ), #137, .F. ) ;
#5 = CIRCLE ( 'NONE', #116, 125.0000000000000000 ) ;
#6 = LOCAL_TIME ( 13, 49, 13.00000000000000000, #144 ) ;
#7 = APPROVAL_STATUS ( 'not_yet_approved' ) ;
#8 =( LENGTH_UNIT ( ) NAMED_UNIT ( * ) SI_UNIT ( .MILLI., .METRE. ) );
#9 = EDGE_CURVE ( 'NONE', #107, #126, #20, .T. ) ;
#10 = CLOSED_SHELL ( 'NONE', ( #4, #74, #196, #18, #128 ) ) ;
#11 = LINE ( 'NONE', #27, #96 ) ;
#12 = APPLICATION_PROTOCOL_DEFINITION ( 'international standard', 'config_control_design', 1994, #51 ) ;
#13 = ORIENTED_EDGE ( 'NONE', *, *, #53, .F. ) ;
#14 = ORIENTED_EDGE ( 'NONE', *, *, #69, .T. ) ;
#15 = DATE_AND_TIME ( #171, #80 ) ;
#16 = ORIENTED_EDGE ( 'NONE', *, *, #143, .F. ) ;
#17 = FACE_OUTER_BOUND ( 'NONE', #76, .T. ) ;
#18 = ADVANCED_FACE ( 'NONE', ( #187 ), #45, .F. ) ;
#19 = PRODUCT_DEFINITION_FORMATION_WITH_SPECIFIED_SOURCE ( 'ANY', '', #147, .NOT_KNOWN. ) ;
#20 = CIRCLE ( 'NONE', #33, 12.69999999999999929 ) ;
#21 = CALENDAR_DATE ( 2021, 25, 2 ) ;
#22 = COORDINATED_UNIVERSAL_TIME_OFFSET ( 2, 0, .AHEAD. ) ;
#23 = APPLICATION_CONTEXT ( 'configuration controlled 3d designs of mechanical parts and assemblies' ) ;
#24 = PERSON_AND_ORGANIZATION ( #123, #121 ) ;
#25 = APPROVAL ( #57, 'UNSPECIFIED' ) ;
#26 = PERSON_AND_ORGANIZATION_ROLE ( 'design_owner' ) ;
#27 = CARTESIAN_POINT ( 'NONE',  ( -12.69999999999999929, 0.000000000000000000, 6.000000000000000000 ) ) ;
#28 = VERTEX_POINT ( 'NONE', #79 ) ;
#29 = APPLICATION_PROTOCOL_DEFINITION ( 'international standard', 'config_control_design', 1994, #23 ) ;
#30 = DIRECTION ( 'NONE',  ( 0.000000000000000000, 0.000000000000000000, 1.000000000000000000 ) ) ;
#31 = DATE_AND_TIME ( #174, #34 ) ;
#32 = DIRECTION ( 'NONE',  ( -1.000000000000000000, 0.000000000000000000, 0.000000000000000000 ) ) ;
#33 = AXIS2_PLACEMENT_3D ( 'NONE', #73, #94, #175 ) ;
#34 = LOCAL_TIME ( 13, 49, 13.00000000000000000, #108 ) ;
#35 = CC_DESIGN_DATE_AND_TIME_ASSIGNMENT ( #31, #151, ( #43 ) ) ;
#36 = PERSON_AND_ORGANIZATION_ROLE ( 'classification_officer' ) ;
#37 = EDGE_CURVE ( 'NONE', #185, #107, #173, .T. ) ;
#38 = PERSON_AND_ORGANIZATION ( #123, #121 ) ;
#39 = DESIGN_CONTEXT ( 'detailed design', #51, 'design' ) ;
#40 = DIRECTION ( 'NONE',  ( -0.000000000000000000, -0.000000000000000000, -1.000000000000000000 ) ) ;
#41 = DIRECTION ( 'NONE',  ( 0.000000000000000000, 1.000000000000000000, -0.000000000000000000 ) ) ;
#42 = DIRECTION ( 'NONE',  ( 1.000000000000000000, 0.000000000000000000, 0.000000000000000000 ) ) ;
#43 = PRODUCT_DEFINITION ( 'UNKNOWN', '', #19, #39 ) ;
#44 = DIRECTION ( 'NONE',  ( 1.224646799147353207E-16, -1.000000000000000000, 0.000000000000000000 ) ) ;
#45 = PLANE ( 'NONE',  #149 ) ;
#46 = APPROVAL_PERSON_ORGANIZATION ( #38, #134, #83 ) ;
#47 = VERTEX_POINT ( 'NONE', #177 ) ;
#48 = DIRECTION ( 'NONE',  ( 1.000000000000000000, 0.000000000000000000, -0.000000000000000000 ) ) ;
#49 = ORIENTED_EDGE ( 'NONE', *, *, #56, .T. ) ;
#50 = FACE_OUTER_BOUND ( 'NONE', #166, .T. ) ;
#51 = APPLICATION_CONTEXT ( 'configuration controlled 3d designs of mechanical parts and assemblies' ) ;
#52 = AXIS2_PLACEMENT_3D ( 'NONE', #195, #40, #138 ) ;
#53 = EDGE_CURVE ( 'NONE', #126, #107, #93, .T. ) ;
#54 = CC_DESIGN_PERSON_AND_ORGANIZATION_ASSIGNMENT ( #129, #36, ( #145 ) ) ;
#55 = APPROVAL_PERSON_ORGANIZATION ( #199, #112, #63 ) ;
#56 = EDGE_CURVE ( 'NONE', #47, #126, #11, .T. ) ;
#57 = APPROVAL_STATUS ( 'not_yet_approved' ) ;
#58 = PERSON_AND_ORGANIZATION ( #123, #121 ) ;
#59 = COORDINATED_UNIVERSAL_TIME_OFFSET ( 2, 0, .AHEAD. ) ;
#60 = APPROVAL_DATE_TIME ( #142, #25 ) ;
#61 = SPHERICAL_SURFACE ( 'NONE', #191, 125.0000000000000000 ) ;
#62 = ORIENTED_EDGE ( 'NONE', *, *, #160, .T. ) ;
#63 = APPROVAL_ROLE ( '' ) ;
#64 = ORIENTED_EDGE ( 'NONE', *, *, #53, .T. ) ;
#65 = CC_DESIGN_APPROVAL ( #25, ( #145 ) ) ;
#66 = PERSON_AND_ORGANIZATION ( #123, #121 ) ;
#67 = ORIENTED_EDGE ( 'NONE', *, *, #170, .T. ) ;
#68 = DIRECTION ( 'NONE',  ( -0.000000000000000000, -0.000000000000000000, -1.000000000000000000 ) ) ;
#69 = EDGE_CURVE ( 'NONE', #185, #47, #127, .T. ) ;
#70 = CC_DESIGN_APPROVAL ( #134, ( #19 ) ) ;
#71 = PERSON_AND_ORGANIZATION ( #123, #121 ) ;
#72 = CC_DESIGN_DATE_AND_TIME_ASSIGNMENT ( #146, #82, ( #145 ) ) ;
#73 = CARTESIAN_POINT ( 'NONE',  ( 0.000000000000000000, 0.000000000000000000, 0.000000000000000000 ) ) ;
#74 = ADVANCED_FACE ( 'NONE', ( #92 ), #87, .T. ) ;
#75 = DIRECTION ( 'NONE',  ( -0.000000000000000000, -0.000000000000000000, -1.000000000000000000 ) ) ;
#76 = EDGE_LOOP ( 'NONE', ( #139, #154, #109 ) ) ;
#77 = DIRECTION ( 'NONE',  ( 0.000000000000000000, -1.000000000000000000, -0.000000000000000000 ) ) ;
#78 = CARTESIAN_POINT ( 'NONE',  ( 12.69999999999999929, 1.555301434917138433E-15, 6.000000000000000000 ) ) ;
#79 = CARTESIAN_POINT ( 'NONE',  ( 2.500127725443903033E-14, 0.000000000000000000, 5.353166425306588039 ) ) ;
#80 = LOCAL_TIME ( 13, 49, 13.00000000000000000, #186 ) ;
#81 = AXIS2_PLACEMENT_3D ( 'NONE', #101, #155, #32 ) ;
#82 = DATE_TIME_ROLE ( 'classification_date' ) ;
#83 = APPROVAL_ROLE ( '' ) ;
#84 = AXIS2_PLACEMENT_3D ( 'NONE', #168, #133, #118 ) ;
#85 = PERSON_AND_ORGANIZATION ( #123, #121 ) ;
#86 = CARTESIAN_POINT ( 'NONE',  ( 1.734723475976807094E-14, 0.000000000000000000, 130.3531664253065969 ) ) ;
#87 = CYLINDRICAL_SURFACE ( 'NONE', #81, 12.69999999999999929 ) ;
#88 = ORIENTED_EDGE ( 'NONE', *, *, #56, .F. ) ;
#89 = DIRECTION ( 'NONE',  ( 1.000000000000000000, 1.224646799147353207E-16, 0.000000000000000000 ) ) ;
#90 = ORIENTED_EDGE ( 'NONE', *, *, #160, .F. ) ;
#91 = MECHANICAL_CONTEXT ( 'NONE', #23, 'mechanical' ) ;
#92 = FACE_OUTER_BOUND ( 'NONE', #190, .T. ) ;
#93 = CIRCLE ( 'NONE', #194, 12.69999999999999929 ) ;
#94 = DIRECTION ( 'NONE',  ( 0.000000000000000000, 0.000000000000000000, 1.000000000000000000 ) ) ;
#95 = APPROVAL_PERSON_ORGANIZATION ( #58, #25, #114 ) ;
#96 = VECTOR ( 'NONE', #75, 1000.000000000000000 ) ;
#97 = CC_DESIGN_PERSON_AND_ORGANIZATION_ASSIGNMENT ( #24, #26, ( #147 ) ) ;
#98 = DATE_AND_TIME ( #193, #158 ) ;
#99 = DIRECTION ( 'NONE',  ( 1.000000000000000000, 0.000000000000000000, 0.000000000000000000 ) ) ;
#100 = DIRECTION ( 'NONE',  ( -1.000000000000000000, 0.000000000000000000, 0.000000000000000000 ) ) ;
#101 = CARTESIAN_POINT ( 'NONE',  ( 0.000000000000000000, 0.000000000000000000, 6.000000000000000000 ) ) ;
#102 = CARTESIAN_POINT ( 'NONE',  ( 0.000000000000000000, 0.000000000000000000, 0.000000000000000000 ) ) ;
#103 = PRODUCT_DEFINITION_SHAPE ( 'NONE', 'NONE',  #43 ) ;
#104 = ORIENTED_EDGE ( 'NONE', *, *, #37, .T. ) ;
#105 = CC_DESIGN_PERSON_AND_ORGANIZATION_ASSIGNMENT ( #71, #113, ( #19 ) ) ;
#106 =( NAMED_UNIT ( * ) PLANE_ANGLE_UNIT ( ) SI_UNIT ( $, .RADIAN. ) );
#107 = VERTEX_POINT ( 'NONE', #156 ) ;
#108 = COORDINATED_UNIVERSAL_TIME_OFFSET ( 2, 0, .AHEAD. ) ;
#109 = ORIENTED_EDGE ( 'NONE', *, *, #143, .T. ) ;
#110 = MANIFOLD_SOLID_BREP ( 'Cut-Revolve1', #10 ) ;
#111 = ORIENTED_EDGE ( 'NONE', *, *, #9, .T. ) ;
#112 = APPROVAL ( #132, 'UNSPECIFIED' ) ;
#113 = PERSON_AND_ORGANIZATION_ROLE ( 'design_supplier' ) ;
#114 = APPROVAL_ROLE ( '' ) ;
#115 = CALENDAR_DATE ( 2021, 25, 2 ) ;
#116 = AXIS2_PLACEMENT_3D ( 'NONE', #86, #41, #197 ) ;
#117 = DIRECTION ( 'NONE',  ( -0.000000000000000000, -0.000000000000000000, -1.000000000000000000 ) ) ;
#118 = DIRECTION ( 'NONE',  ( 1.000000000000000000, 0.000000000000000000, 0.000000000000000000 ) ) ;
#119 = CARTESIAN_POINT ( 'NONE',  ( 1.734723475976807094E-14, 0.000000000000000000, 130.3531664253065969 ) ) ;
#120 = ORIENTED_EDGE ( 'NONE', *, *, #37, .F. ) ;
#121 = ORGANIZATION ( 'UNSPECIFIED', 'UNSPECIFIED', '' ) ;
#122 = CARTESIAN_POINT ( 'NONE',  ( 1.734723475976807094E-14, 0.000000000000000000, 130.3531664253065969 ) ) ;
#123 = PERSON ( 'UNSPECIFIED', 'UNSPECIFIED', 'UNSPECIFIED', ('UNSPECIFIED'), ('UNSPECIFIED'), ('UNSPECIFIED') ) ;
#124 = PERSON_AND_ORGANIZATION_ROLE ( 'creator' ) ;
#125 = EDGE_LOOP ( 'NONE', ( #120, #14, #49, #64 ) ) ;
#126 = VERTEX_POINT ( 'NONE', #135 ) ;
#127 = CIRCLE ( 'NONE', #179, 12.70000000000012363 ) ;
#128 = ADVANCED_FACE ( 'NONE', ( #17 ), #61, .F. ) ;
#129 = PERSON_AND_ORGANIZATION ( #123, #121 ) ;
#130 = SHAPE_DEFINITION_REPRESENTATION ( #103, #172 ) ;
#131 = VECTOR ( 'NONE', #198, 1000.000000000000000 ) ;
#132 = APPROVAL_STATUS ( 'not_yet_approved' ) ;
#133 = DIRECTION ( 'NONE',  ( 0.000000000000000000, 0.000000000000000000, 1.000000000000000000 ) ) ;
#134 = APPROVAL ( #7, 'UNSPECIFIED' ) ;
#135 = CARTESIAN_POINT ( 'NONE',  ( -12.69999999999999929, 0.000000000000000000, 0.000000000000000000 ) ) ;
#136 = CARTESIAN_POINT ( 'NONE',  ( 0.000000000000000000, 0.000000000000000000, 6.000000000000000000 ) ) ;
#137 = SPHERICAL_SURFACE ( 'NONE', #141, 125.0000000000000000 ) ;
#138 = DIRECTION ( 'NONE',  ( 1.000000000000000000, 0.000000000000000000, 0.000000000000000000 ) ) ;
#139 = ORIENTED_EDGE ( 'NONE', *, *, #170, .F. ) ;
#140 = AXIS2_PLACEMENT_3D ( 'NONE', #188, #44, #89 ) ;
#141 = AXIS2_PLACEMENT_3D ( 'NONE', #122, #189, #3 ) ;
#142 = DATE_AND_TIME ( #21, #6 ) ;
#143 = EDGE_CURVE ( 'NONE', #185, #28, #5, .T. ) ;
#144 = COORDINATED_UNIVERSAL_TIME_OFFSET ( 2, 0, .AHEAD. ) ;
#145 = SECURITY_CLASSIFICATION ( '', '', #161 ) ;
#146 = DATE_AND_TIME ( #115, #184 ) ;
#147 = PRODUCT ( '010-1208E_UVFS_PCV_window', '010-1208E_UVFS_PCV_window', '', ( #91 ) ) ;
#148 = FACE_OUTER_BOUND ( 'NONE', #125, .T. ) ;
#149 = AXIS2_PLACEMENT_3D ( 'NONE', #102, #183, #48 ) ;
#150 = CYLINDRICAL_SURFACE ( 'NONE', #163, 12.69999999999999929 ) ;
#151 = DATE_TIME_ROLE ( 'creation_date' ) ;
#152 = CARTESIAN_POINT ( 'NONE',  ( 12.70000000000013962, 1.555301434917155788E-15, 6.000000000000005329 ) ) ;
#153 = DIRECTION ( 'NONE',  ( 1.000000000000000000, 0.000000000000000000, 0.000000000000000000 ) ) ;
#154 = ORIENTED_EDGE ( 'NONE', *, *, #69, .F. ) ;
#155 = DIRECTION ( 'NONE',  ( -0.000000000000000000, -0.000000000000000000, -1.000000000000000000 ) ) ;
#156 = CARTESIAN_POINT ( 'NONE',  ( 12.69999999999999929, 1.555301434917138433E-15, 0.000000000000000000 ) ) ;
#157 = CC_DESIGN_PERSON_AND_ORGANIZATION_ASSIGNMENT ( #66, #124, ( #43 ) ) ;
#158 = LOCAL_TIME ( 13, 49, 13.00000000000000000, #59 ) ;
#159 = CIRCLE ( 'NONE', #140, 125.0000000000000000 ) ;
#160 = EDGE_CURVE ( 'NONE', #47, #185, #176, .T. ) ;
#161 = SECURITY_CLASSIFICATION_LEVEL ( 'unclassified' ) ;
#162 = UNCERTAINTY_MEASURE_WITH_UNIT (LENGTH_MEASURE( 1.000000000000000082E-05 ), #8, 'distance_accuracy_value', 'NONE');
#163 = AXIS2_PLACEMENT_3D ( 'NONE', #136, #117, #100 ) ;
#164 = APPROVAL_DATE_TIME ( #98, #134 ) ;
#165 =( NAMED_UNIT ( * ) SI_UNIT ( $, .STERADIAN. ) SOLID_ANGLE_UNIT ( ) );
#166 = EDGE_LOOP ( 'NONE', ( #90, #67, #16 ) ) ;
#167 =( GEOMETRIC_REPRESENTATION_CONTEXT ( 3 ) GLOBAL_UNCERTAINTY_ASSIGNED_CONTEXT ( ( #162 ) ) GLOBAL_UNIT_ASSIGNED_CONTEXT ( ( #8, #106, #165 ) ) REPRESENTATION_CONTEXT ( 'NONE', 'WORKASPACE' ) );
#168 = CARTESIAN_POINT ( 'NONE',  ( 0.000000000000000000, 0.000000000000000000, 0.000000000000000000 ) ) ;
#169 = CARTESIAN_POINT ( 'NONE',  ( 0.000000000000000000, 0.000000000000000000, 0.000000000000000000 ) ) ;
#170 = EDGE_CURVE ( 'NONE', #47, #28, #159, .T. ) ;
#171 = CALENDAR_DATE ( 2021, 25, 2 ) ;
#172 = ADVANCED_BREP_SHAPE_REPRESENTATION ( '010-1208E_UVFS_PCV_window', ( #110, #84 ), #167 ) ;
#173 = LINE ( 'NONE', #78, #131 ) ;
#174 = CALENDAR_DATE ( 2021, 25, 2 ) ;
#175 = DIRECTION ( 'NONE',  ( 1.000000000000000000, 0.000000000000000000, 0.000000000000000000 ) ) ;
#176 = CIRCLE ( 'NONE', #52, 12.70000000000012363 ) ;
#177 = CARTESIAN_POINT ( 'NONE',  ( -12.70000000000010765, 0.000000000000000000, 6.000000000000005329 ) ) ;
#178 = CC_DESIGN_SECURITY_CLASSIFICATION ( #145, ( #19 ) ) ;
#179 = AXIS2_PLACEMENT_3D ( 'NONE', #182, #68, #42 ) ;
#180 = CC_DESIGN_PERSON_AND_ORGANIZATION_ASSIGNMENT ( #85, #181, ( #19 ) ) ;
#181 = PERSON_AND_ORGANIZATION_ROLE ( 'creator' ) ;
#182 = CARTESIAN_POINT ( 'NONE',  ( 1.734723475976807094E-14, 0.000000000000000000, 6.000000000000005329 ) ) ;
#183 = DIRECTION ( 'NONE',  ( 0.000000000000000000, 0.000000000000000000, 1.000000000000000000 ) ) ;
#184 = LOCAL_TIME ( 13, 49, 13.00000000000000000, #22 ) ;
#185 = VERTEX_POINT ( 'NONE', #152 ) ;
#186 = COORDINATED_UNIVERSAL_TIME_OFFSET ( 2, 0, .AHEAD. ) ;
#187 = FACE_OUTER_BOUND ( 'NONE', #200, .T. ) ;
#188 = CARTESIAN_POINT ( 'NONE',  ( 1.734723475976807094E-14, 0.000000000000000000, 130.3531664253065969 ) ) ;
#189 = DIRECTION ( 'NONE',  ( 0.000000000000000000, -1.000000000000000000, -0.000000000000000000 ) ) ;
#190 = EDGE_LOOP ( 'NONE', ( #62, #104, #111, #88 ) ) ;
#191 = AXIS2_PLACEMENT_3D ( 'NONE', #119, #77, #99 ) ;
#192 = CC_DESIGN_APPROVAL ( #112, ( #43 ) ) ;
#193 = CALENDAR_DATE ( 2021, 25, 2 ) ;
#194 = AXIS2_PLACEMENT_3D ( 'NONE', #169, #30, #153 ) ;
#195 = CARTESIAN_POINT ( 'NONE',  ( 1.734723475976807094E-14, 0.000000000000000000, 6.000000000000005329 ) ) ;
#196 = ADVANCED_FACE ( 'NONE', ( #148 ), #150, .T. ) ;
#197 = DIRECTION ( 'NONE',  ( 0.000000000000000000, 0.000000000000000000, 1.000000000000000000 ) ) ;
#198 = DIRECTION ( 'NONE',  ( -0.000000000000000000, -0.000000000000000000, -1.000000000000000000 ) ) ;
#199 = PERSON_AND_ORGANIZATION ( #123, #121 ) ;
#200 = EDGE_LOOP ( 'NONE', ( #13, #2 ) ) ;
#201 = PRODUCT_RELATED_PRODUCT_CATEGORY ( 'detail', '', ( #147 ) ) ;
ENDSEC;
END-ISO-10303-21;
