ISO-10303-21;
HEADER;
FILE_DESCRIPTION (( 'STEP AP203' ),
    '1' );
FILE_NAME ('010-1207E_UVFS_PCV_window.STEP',
    '2021-02-25T11:32:14',
    ( '' ),
    ( '' ),
    'SwSTEP 2.0',
    'SolidWorks 2019',
    '' );
FILE_SCHEMA (( 'CONFIG_CONTROL_DESIGN' ));
ENDSEC;

DATA;
#1 = CARTESIAN_POINT ( 'NONE',  ( 0.000000000000000000, 0.000000000000000000, 0.000000000000000000 ) ) ;
#2 = DESIGN_CONTEXT ( 'detailed design', #130, 'design' ) ;
#3 = PLANE ( 'NONE',  #148 ) ;
#4 = PRODUCT ( '010-1207E_UVFS_PCV_window', '010-1207E_UVFS_PCV_window', '', ( #65 ) ) ;
#5 = LINE ( 'NONE', #199, #188 ) ;
#6 = COORDINATED_UNIVERSAL_TIME_OFFSET ( 2, 0, .AHEAD. ) ;
#7 = EDGE_CURVE ( 'NONE', #58, #86, #85, .T. ) ;
#8 = AXIS2_PLACEMENT_3D ( 'NONE', #189, #47, #110 ) ;
#9 = ORIENTED_EDGE ( 'NONE', *, *, #53, .F. ) ;
#10 = CARTESIAN_POINT ( 'NONE',  ( 0.000000000000000000, 0.000000000000000000, 6.000000000000000000 ) ) ;
#11 = CARTESIAN_POINT ( 'NONE',  ( 1.040834085586084257E-14, 0.000000000000000000, 79.91691281432146354 ) ) ;
#12 = EDGE_CURVE ( 'NONE', #58, #190, #92, .T. ) ;
#13 = CARTESIAN_POINT ( 'NONE',  ( 0.000000000000000000, 0.000000000000000000, 0.000000000000000000 ) ) ;
#14 = CARTESIAN_POINT ( 'NONE',  ( 1.500076635266341693E-14, 0.000000000000000000, 4.916912814321467096 ) ) ;
#15 = DIRECTION ( 'NONE',  ( -0.000000000000000000, -0.000000000000000000, -1.000000000000000000 ) ) ;
#16 = APPROVAL_PERSON_ORGANIZATION ( #17, #72, #116 ) ;
#17 = PERSON_AND_ORGANIZATION ( #146, #174 ) ;
#18 = DIRECTION ( 'NONE',  ( 1.000000000000000000, 0.000000000000000000, 0.000000000000000000 ) ) ;
#19 = AXIS2_PLACEMENT_3D ( 'NONE', #13, #78, #95 ) ;
#20 = ORIENTED_EDGE ( 'NONE', *, *, #32, .F. ) ;
#21 = APPROVAL_DATE_TIME ( #102, #72 ) ;
#22 = PERSON_AND_ORGANIZATION_ROLE ( 'classification_officer' ) ;
#23 = SHAPE_DEFINITION_REPRESENTATION ( #114, #66 ) ;
#24 = ORIENTED_EDGE ( 'NONE', *, *, #7, .T. ) ;
#25 = ORIENTED_EDGE ( 'NONE', *, *, #56, .T. ) ;
#26 = AXIS2_PLACEMENT_3D ( 'NONE', #113, #140, #142 ) ;
#27 = CYLINDRICAL_SURFACE ( 'NONE', #134, 12.69999999999999929 ) ;
#28 = DIRECTION ( 'NONE',  ( 1.000000000000000000, 0.000000000000000000, 0.000000000000000000 ) ) ;
#29 = PRODUCT_DEFINITION ( 'UNKNOWN', '', #196, #2 ) ;
#30 = CARTESIAN_POINT ( 'NONE',  ( -12.69999999999999929, 0.000000000000000000, 0.000000000000000000 ) ) ;
#31 = FACE_OUTER_BOUND ( 'NONE', #43, .T. ) ;
#32 = EDGE_CURVE ( 'NONE', #105, #190, #42, .T. ) ;
#33 = CARTESIAN_POINT ( 'NONE',  ( 1.040834085586084257E-14, 0.000000000000000000, 79.91691281432146354 ) ) ;
#34 = DATE_AND_TIME ( #129, #117 ) ;
#35 = COORDINATED_UNIVERSAL_TIME_OFFSET ( 2, 0, .AHEAD. ) ;
#36 =( GEOMETRIC_REPRESENTATION_CONTEXT ( 3 ) GLOBAL_UNCERTAINTY_ASSIGNED_CONTEXT ( ( #143 ) ) GLOBAL_UNIT_ASSIGNED_CONTEXT ( ( #167, #67, #193 ) ) REPRESENTATION_CONTEXT ( 'NONE', 'WORKASPACE' ) );
#37 = CC_DESIGN_PERSON_AND_ORGANIZATION_ASSIGNMENT ( #154, #119, ( #196 ) ) ;
#38 = APPROVAL_DATE_TIME ( #194, #90 ) ;
#39 = PERSON_AND_ORGANIZATION_ROLE ( 'design_supplier' ) ;
#40 = CC_DESIGN_APPROVAL ( #72, ( #196 ) ) ;
#41 = ORIENTED_EDGE ( 'NONE', *, *, #161, .T. ) ;
#42 = CIRCLE ( 'NONE', #19, 12.69999999999999929 ) ;
#43 = EDGE_LOOP ( 'NONE', ( #107, #20 ) ) ;
#44 = CIRCLE ( 'NONE', #57, 12.69999999999998685 ) ;
#45 = CC_DESIGN_PERSON_AND_ORGANIZATION_ASSIGNMENT ( #84, #50, ( #4 ) ) ;
#46 = SPHERICAL_SURFACE ( 'NONE', #201, 75.00000000000000000 ) ;
#47 = DIRECTION ( 'NONE',  ( -0.000000000000000000, -0.000000000000000000, -1.000000000000000000 ) ) ;
#48 = DIRECTION ( 'NONE',  ( 0.000000000000000000, 0.000000000000000000, 1.000000000000000000 ) ) ;
#49 = CARTESIAN_POINT ( 'NONE',  ( 12.69999999999999929, 1.555301434917138433E-15, 0.000000000000000000 ) ) ;
#50 = PERSON_AND_ORGANIZATION_ROLE ( 'design_owner' ) ;
#51 = APPROVAL_STATUS ( 'not_yet_approved' ) ;
#52 = APPROVAL_ROLE ( '' ) ;
#53 = EDGE_CURVE ( 'NONE', #139, #86, #137, .T. ) ;
#54 = DATE_TIME_ROLE ( 'creation_date' ) ;
#55 = CARTESIAN_POINT ( 'NONE',  ( 0.000000000000000000, 0.000000000000000000, 0.000000000000000000 ) ) ;
#56 = EDGE_CURVE ( 'NONE', #190, #105, #69, .T. ) ;
#57 = AXIS2_PLACEMENT_3D ( 'NONE', #165, #128, #127 ) ;
#58 = VERTEX_POINT ( 'NONE', #63 ) ;
#59 = VECTOR ( 'NONE', #15, 1000.000000000000000 ) ;
#60 = DIRECTION ( 'NONE',  ( 0.000000000000000000, -1.000000000000000000, -0.000000000000000000 ) ) ;
#61 = AXIS2_PLACEMENT_3D ( 'NONE', #175, #77, #96 ) ;
#62 = DIRECTION ( 'NONE',  ( 1.224646799147353207E-16, -1.000000000000000000, 0.000000000000000000 ) ) ;
#63 = CARTESIAN_POINT ( 'NONE',  ( -12.69999999999997620, 0.000000000000000000, 6.000000000000005329 ) ) ;
#64 = ADVANCED_FACE ( 'NONE', ( #173 ), #46, .F. ) ;
#65 = MECHANICAL_CONTEXT ( 'NONE', #123, 'mechanical' ) ;
#66 = ADVANCED_BREP_SHAPE_REPRESENTATION ( '010-1207E_UVFS_PCV_window', ( #133, #181 ), #36 ) ;
#67 =( NAMED_UNIT ( * ) PLANE_ANGLE_UNIT ( ) SI_UNIT ( $, .RADIAN. ) );
#68 = EDGE_CURVE ( 'NONE', #58, #139, #44, .T. ) ;
#69 = CIRCLE ( 'NONE', #99, 12.69999999999999929 ) ;
#70 = CIRCLE ( 'NONE', #61, 12.69999999999998685 ) ;
#71 = ORIENTED_EDGE ( 'NONE', *, *, #53, .T. ) ;
#72 = APPROVAL ( #51, 'UNSPECIFIED' ) ;
#73 = EDGE_LOOP ( 'NONE', ( #197, #24, #9 ) ) ;
#74 = AXIS2_PLACEMENT_3D ( 'NONE', #33, #124, #48 ) ;
#75 = ORIENTED_EDGE ( 'NONE', *, *, #7, .F. ) ;
#76 = LOCAL_TIME ( 13, 32, 14.00000000000000000, #192 ) ;
#77 = DIRECTION ( 'NONE',  ( -0.000000000000000000, -0.000000000000000000, -1.000000000000000000 ) ) ;
#78 = DIRECTION ( 'NONE',  ( 0.000000000000000000, 0.000000000000000000, 1.000000000000000000 ) ) ;
#79 = CARTESIAN_POINT ( 'NONE',  ( 12.69999999999999751, 1.555301434917138235E-15, 6.000000000000005329 ) ) ;
#80 = SPHERICAL_SURFACE ( 'NONE', #26, 75.00000000000000000 ) ;
#81 = PERSON_AND_ORGANIZATION_ROLE ( 'creator' ) ;
#82 = CC_DESIGN_APPROVAL ( #90, ( #29 ) ) ;
#83 = DATE_TIME_ROLE ( 'classification_date' ) ;
#84 = PERSON_AND_ORGANIZATION ( #146, #174 ) ;
#85 = CIRCLE ( 'NONE', #97, 75.00000000000000000 ) ;
#86 = VERTEX_POINT ( 'NONE', #14 ) ;
#87 = APPROVAL_STATUS ( 'not_yet_approved' ) ;
#88 = CALENDAR_DATE ( 2021, 25, 2 ) ;
#89 = ORIENTED_EDGE ( 'NONE', *, *, #172, .F. ) ;
#90 = APPROVAL ( #87, 'UNSPECIFIED' ) ;
#91 = CC_DESIGN_DATE_AND_TIME_ASSIGNMENT ( #166, #83, ( #135 ) ) ;
#92 = LINE ( 'NONE', #177, #59 ) ;
#93 = DIRECTION ( 'NONE',  ( 0.000000000000000000, 0.000000000000000000, 1.000000000000000000 ) ) ;
#94 = CARTESIAN_POINT ( 'NONE',  ( 1.040834085586084257E-14, 0.000000000000000000, 79.91691281432146354 ) ) ;
#95 = DIRECTION ( 'NONE',  ( 1.000000000000000000, 0.000000000000000000, 0.000000000000000000 ) ) ;
#96 = DIRECTION ( 'NONE',  ( 1.000000000000000000, 0.000000000000000000, 0.000000000000000000 ) ) ;
#97 = AXIS2_PLACEMENT_3D ( 'NONE', #94, #62, #163 ) ;
#98 = SECURITY_CLASSIFICATION_LEVEL ( 'unclassified' ) ;
#99 = AXIS2_PLACEMENT_3D ( 'NONE', #164, #178, #28 ) ;
#100 = DIRECTION ( 'NONE',  ( 0.000000000000000000, 0.000000000000000000, 1.000000000000000000 ) ) ;
#101 = EDGE_LOOP ( 'NONE', ( #75, #138, #71 ) ) ;
#102 = DATE_AND_TIME ( #182, #171 ) ;
#103 = PERSON_AND_ORGANIZATION ( #146, #174 ) ;
#104 = CC_DESIGN_SECURITY_CLASSIFICATION ( #135, ( #196 ) ) ;
#105 = VERTEX_POINT ( 'NONE', #49 ) ;
#106 = ADVANCED_FACE ( 'NONE', ( #112 ), #27, .T. ) ;
#107 = ORIENTED_EDGE ( 'NONE', *, *, #56, .F. ) ;
#108 = DIRECTION ( 'NONE',  ( -0.000000000000000000, -0.000000000000000000, -1.000000000000000000 ) ) ;
#109 = CC_DESIGN_APPROVAL ( #141, ( #135 ) ) ;
#110 = DIRECTION ( 'NONE',  ( -1.000000000000000000, 0.000000000000000000, 0.000000000000000000 ) ) ;
#111 = CC_DESIGN_PERSON_AND_ORGANIZATION_ASSIGNMENT ( #131, #81, ( #29 ) ) ;
#112 = FACE_OUTER_BOUND ( 'NONE', #136, .T. ) ;
#113 = CARTESIAN_POINT ( 'NONE',  ( 1.040834085586084257E-14, 0.000000000000000000, 79.91691281432146354 ) ) ;
#114 = PRODUCT_DEFINITION_SHAPE ( 'NONE', 'NONE',  #29 ) ;
#115 = CALENDAR_DATE ( 2021, 25, 2 ) ;
#116 = APPROVAL_ROLE ( '' ) ;
#117 = LOCAL_TIME ( 13, 32, 14.00000000000000000, #149 ) ;
#118 = COORDINATED_UNIVERSAL_TIME_OFFSET ( 2, 0, .AHEAD. ) ;
#119 = PERSON_AND_ORGANIZATION_ROLE ( 'creator' ) ;
#120 = APPROVAL_DATE_TIME ( #179, #141 ) ;
#121 = LOCAL_TIME ( 13, 32, 14.00000000000000000, #35 ) ;
#122 = EDGE_LOOP ( 'NONE', ( #89, #41, #156, #25 ) ) ;
#123 = APPLICATION_CONTEXT ( 'configuration controlled 3d designs of mechanical parts and assemblies' ) ;
#124 = DIRECTION ( 'NONE',  ( 0.000000000000000000, 1.000000000000000000, -0.000000000000000000 ) ) ;
#125 = CYLINDRICAL_SURFACE ( 'NONE', #8, 12.69999999999999929 ) ;
#126 = ORIENTED_EDGE ( 'NONE', *, *, #68, .T. ) ;
#127 = DIRECTION ( 'NONE',  ( 1.000000000000000000, 0.000000000000000000, 0.000000000000000000 ) ) ;
#128 = DIRECTION ( 'NONE',  ( -0.000000000000000000, -0.000000000000000000, -1.000000000000000000 ) ) ;
#129 = CALENDAR_DATE ( 2021, 25, 2 ) ;
#130 = APPLICATION_CONTEXT ( 'configuration controlled 3d designs of mechanical parts and assemblies' ) ;
#131 = PERSON_AND_ORGANIZATION ( #146, #174 ) ;
#132 = APPROVAL_ROLE ( '' ) ;
#133 = MANIFOLD_SOLID_BREP ( 'Cut-Revolve1', #176 ) ;
#134 = AXIS2_PLACEMENT_3D ( 'NONE', #10, #108, #145 ) ;
#135 = SECURITY_CLASSIFICATION ( '', '', #98 ) ;
#136 = EDGE_LOOP ( 'NONE', ( #126, #153, #185, #158 ) ) ;
#137 = CIRCLE ( 'NONE', #74, 75.00000000000000000 ) ;
#138 = ORIENTED_EDGE ( 'NONE', *, *, #161, .F. ) ;
#139 = VERTEX_POINT ( 'NONE', #79 ) ;
#140 = DIRECTION ( 'NONE',  ( 0.000000000000000000, -1.000000000000000000, -0.000000000000000000 ) ) ;
#141 = APPROVAL ( #155, 'UNSPECIFIED' ) ;
#142 = DIRECTION ( 'NONE',  ( 1.000000000000000000, 0.000000000000000000, 0.000000000000000000 ) ) ;
#143 = UNCERTAINTY_MEASURE_WITH_UNIT (LENGTH_MEASURE( 1.000000000000000082E-05 ), #167, 'distance_accuracy_value', 'NONE');
#144 = LOCAL_TIME ( 13, 32, 14.00000000000000000, #6 ) ;
#145 = DIRECTION ( 'NONE',  ( -1.000000000000000000, 0.000000000000000000, 0.000000000000000000 ) ) ;
#146 = PERSON ( 'UNSPECIFIED', 'UNSPECIFIED', 'UNSPECIFIED', ('UNSPECIFIED'), ('UNSPECIFIED'), ('UNSPECIFIED') ) ;
#147 = ADVANCED_FACE ( 'NONE', ( #31 ), #3, .F. ) ;
#148 = AXIS2_PLACEMENT_3D ( 'NONE', #1, #93, #191 ) ;
#149 = COORDINATED_UNIVERSAL_TIME_OFFSET ( 2, 0, .AHEAD. ) ;
#150 = PERSON_AND_ORGANIZATION ( #146, #174 ) ;
#151 = ADVANCED_FACE ( 'NONE', ( #160 ), #80, .F. ) ;
#152 = PERSON_AND_ORGANIZATION ( #146, #174 ) ;
#153 = ORIENTED_EDGE ( 'NONE', *, *, #172, .T. ) ;
#154 = PERSON_AND_ORGANIZATION ( #146, #174 ) ;
#155 = APPROVAL_STATUS ( 'not_yet_approved' ) ;
#156 = ORIENTED_EDGE ( 'NONE', *, *, #12, .T. ) ;
#157 = APPROVAL_PERSON_ORGANIZATION ( #152, #90, #132 ) ;
#158 = ORIENTED_EDGE ( 'NONE', *, *, #12, .F. ) ;
#159 = APPROVAL_PERSON_ORGANIZATION ( #150, #141, #52 ) ;
#160 = FACE_OUTER_BOUND ( 'NONE', #73, .T. ) ;
#161 = EDGE_CURVE ( 'NONE', #139, #58, #70, .T. ) ;
#162 = DIRECTION ( 'NONE',  ( 1.000000000000000000, 0.000000000000000000, 0.000000000000000000 ) ) ;
#163 = DIRECTION ( 'NONE',  ( 1.000000000000000000, 1.224646799147353207E-16, 0.000000000000000000 ) ) ;
#164 = CARTESIAN_POINT ( 'NONE',  ( 0.000000000000000000, 0.000000000000000000, 0.000000000000000000 ) ) ;
#165 = CARTESIAN_POINT ( 'NONE',  ( 1.040834085586084257E-14, 0.000000000000000000, 6.000000000000005329 ) ) ;
#166 = DATE_AND_TIME ( #88, #121 ) ;
#167 =( LENGTH_UNIT ( ) NAMED_UNIT ( * ) SI_UNIT ( .MILLI., .METRE. ) );
#168 = APPLICATION_PROTOCOL_DEFINITION ( 'international standard', 'config_control_design', 1994, #130 ) ;
#169 = PRODUCT_RELATED_PRODUCT_CATEGORY ( 'detail', '', ( #4 ) ) ;
#170 = PERSON_AND_ORGANIZATION ( #146, #174 ) ;
#171 = LOCAL_TIME ( 13, 32, 14.00000000000000000, #118 ) ;
#172 = EDGE_CURVE ( 'NONE', #139, #105, #5, .T. ) ;
#173 = FACE_OUTER_BOUND ( 'NONE', #101, .T. ) ;
#174 = ORGANIZATION ( 'UNSPECIFIED', 'UNSPECIFIED', '' ) ;
#175 = CARTESIAN_POINT ( 'NONE',  ( 1.040834085586084257E-14, 0.000000000000000000, 6.000000000000005329 ) ) ;
#176 = CLOSED_SHELL ( 'NONE', ( #151, #106, #186, #147, #64 ) ) ;
#177 = CARTESIAN_POINT ( 'NONE',  ( -12.69999999999999929, 0.000000000000000000, 6.000000000000000000 ) ) ;
#178 = DIRECTION ( 'NONE',  ( 0.000000000000000000, 0.000000000000000000, 1.000000000000000000 ) ) ;
#179 = DATE_AND_TIME ( #115, #76 ) ;
#180 = CC_DESIGN_PERSON_AND_ORGANIZATION_ASSIGNMENT ( #103, #22, ( #135 ) ) ;
#181 = AXIS2_PLACEMENT_3D ( 'NONE', #55, #100, #18 ) ;
#182 = CALENDAR_DATE ( 2021, 25, 2 ) ;
#183 = CC_DESIGN_PERSON_AND_ORGANIZATION_ASSIGNMENT ( #170, #39, ( #196 ) ) ;
#184 = APPLICATION_PROTOCOL_DEFINITION ( 'international standard', 'config_control_design', 1994, #123 ) ;
#185 = ORIENTED_EDGE ( 'NONE', *, *, #32, .T. ) ;
#186 = ADVANCED_FACE ( 'NONE', ( #200 ), #125, .T. ) ;
#187 = DIRECTION ( 'NONE',  ( -0.000000000000000000, -0.000000000000000000, -1.000000000000000000 ) ) ;
#188 = VECTOR ( 'NONE', #187, 1000.000000000000000 ) ;
#189 = CARTESIAN_POINT ( 'NONE',  ( 0.000000000000000000, 0.000000000000000000, 6.000000000000000000 ) ) ;
#190 = VERTEX_POINT ( 'NONE', #30 ) ;
#191 = DIRECTION ( 'NONE',  ( 1.000000000000000000, 0.000000000000000000, -0.000000000000000000 ) ) ;
#192 = COORDINATED_UNIVERSAL_TIME_OFFSET ( 2, 0, .AHEAD. ) ;
#193 =( NAMED_UNIT ( * ) SI_UNIT ( $, .STERADIAN. ) SOLID_ANGLE_UNIT ( ) );
#194 = DATE_AND_TIME ( #195, #144 ) ;
#195 = CALENDAR_DATE ( 2021, 25, 2 ) ;
#196 = PRODUCT_DEFINITION_FORMATION_WITH_SPECIFIED_SOURCE ( 'ANY', '', #4, .NOT_KNOWN. ) ;
#197 = ORIENTED_EDGE ( 'NONE', *, *, #68, .F. ) ;
#198 = CC_DESIGN_DATE_AND_TIME_ASSIGNMENT ( #34, #54, ( #29 ) ) ;
#199 = CARTESIAN_POINT ( 'NONE',  ( 12.69999999999999929, 1.555301434917138433E-15, 6.000000000000000000 ) ) ;
#200 = FACE_OUTER_BOUND ( 'NONE', #122, .T. ) ;
#201 = AXIS2_PLACEMENT_3D ( 'NONE', #11, #60, #162 ) ;
ENDSEC;
END-ISO-10303-21;
