ISO-10303-21;
HEADER;
FILE_DESCRIPTION (( 'STEP AP203' ),
    '1' );
FILE_NAME ('010-1206E_UVFS_PCV_window.STEP',
    '2021-02-25T11:30:40',
    ( '' ),
    ( '' ),
    'SwSTEP 2.0',
    'SolidWorks 2019',
    '' );
FILE_SCHEMA (( 'CONFIG_CONTROL_DESIGN' ));
ENDSEC;

DATA;
#1 = DESIGN_CONTEXT ( 'detailed design', #135, 'design' ) ;
#2 = APPROVAL ( #114, 'UNSPECIFIED' ) ;
#3 = VERTEX_POINT ( 'NONE', #117 ) ;
#4 = ORIENTED_EDGE ( 'NONE', *, *, #49, .T. ) ;
#5 = PRODUCT_DEFINITION ( 'UNKNOWN', '', #100, #1 ) ;
#6 = ADVANCED_BREP_SHAPE_REPRESENTATION ( '010-1206E_UVFS_PCV_window', ( #193, #187 ), #44 ) ;
#7 = CARTESIAN_POINT ( 'NONE',  ( 0.000000000000000000, 0.000000000000000000, 0.000000000000000000 ) ) ;
#8 = AXIS2_PLACEMENT_3D ( 'NONE', #7, #48, #47 ) ;
#9 = DIRECTION ( 'NONE',  ( -0.000000000000000000, -0.000000000000000000, -1.000000000000000000 ) ) ;
#10 = SECURITY_CLASSIFICATION_LEVEL ( 'unclassified' ) ;
#11 = DIRECTION ( 'NONE',  ( -0.000000000000000000, -0.000000000000000000, -1.000000000000000000 ) ) ;
#12 = APPROVAL_PERSON_ORGANIZATION ( #57, #41, #43 ) ;
#13 = MECHANICAL_CONTEXT ( 'NONE', #168, 'mechanical' ) ;
#14 = APPROVAL_DATE_TIME ( #98, #104 ) ;
#15 = EDGE_CURVE ( 'NONE', #75, #185, #101, .T. ) ;
#16 = PERSON_AND_ORGANIZATION_ROLE ( 'classification_officer' ) ;
#17 = CALENDAR_DATE ( 2021, 25, 2 ) ;
#18 = CC_DESIGN_DATE_AND_TIME_ASSIGNMENT ( #201, #160, ( #5 ) ) ;
#19 = VERTEX_POINT ( 'NONE', #64 ) ;
#20 = ORIENTED_EDGE ( 'NONE', *, *, #150, .T. ) ;
#21 = LOCAL_TIME ( 13, 30, 40.00000000000000000, #194 ) ;
#22 = CARTESIAN_POINT ( 'NONE',  ( 0.000000000000000000, 0.000000000000000000, 0.000000000000000000 ) ) ;
#23 = CARTESIAN_POINT ( 'NONE',  ( 12.69999999999999929, 1.555301434917138433E-15, 0.000000000000000000 ) ) ;
#24 = CARTESIAN_POINT ( 'NONE',  ( 3.816391647148975608E-14, 0.000000000000000000, 305.7310627879599565 ) ) ;
#25 = PERSON_AND_ORGANIZATION_ROLE ( 'design_supplier' ) ;
#26 = PERSON ( 'UNSPECIFIED', 'UNSPECIFIED', 'UNSPECIFIED', ('UNSPECIFIED'), ('UNSPECIFIED'), ('UNSPECIFIED') ) ;
#27 = CYLINDRICAL_SURFACE ( 'NONE', #58, 12.69999999999999929 ) ;
#28 = CALENDAR_DATE ( 2021, 25, 2 ) ;
#29 = CC_DESIGN_PERSON_AND_ORGANIZATION_ASSIGNMENT ( #69, #128, ( #87 ) ) ;
#30 = APPROVAL_PERSON_ORGANIZATION ( #126, #104, #129 ) ;
#31 = EDGE_CURVE ( 'NONE', #75, #19, #80, .T. ) ;
#32 = ORIENTED_EDGE ( 'NONE', *, *, #89, .T. ) ;
#33 = LOCAL_TIME ( 13, 30, 40.00000000000000000, #161 ) ;
#34 = CARTESIAN_POINT ( 'NONE',  ( 0.000000000000000000, 0.000000000000000000, 6.000000000000000000 ) ) ;
#35 = FACE_OUTER_BOUND ( 'NONE', #103, .T. ) ;
#36 = PERSON_AND_ORGANIZATION ( #26, #71 ) ;
#37 = FACE_OUTER_BOUND ( 'NONE', #137, .T. ) ;
#38 = CLOSED_SHELL ( 'NONE', ( #113, #144, #164, #59, #189 ) ) ;
#39 =( LENGTH_UNIT ( ) NAMED_UNIT ( * ) SI_UNIT ( .MILLI., .METRE. ) );
#40 = EDGE_CURVE ( 'NONE', #185, #105, #165, .T. ) ;
#41 = APPROVAL ( #148, 'UNSPECIFIED' ) ;
#42 = APPLICATION_PROTOCOL_DEFINITION ( 'international standard', 'config_control_design', 1994, #135 ) ;
#43 = APPROVAL_ROLE ( '' ) ;
#44 =( GEOMETRIC_REPRESENTATION_CONTEXT ( 3 ) GLOBAL_UNCERTAINTY_ASSIGNED_CONTEXT ( ( #56 ) ) GLOBAL_UNIT_ASSIGNED_CONTEXT ( ( #39, #97, #146 ) ) REPRESENTATION_CONTEXT ( 'NONE', 'WORKASPACE' ) );
#45 = ORIENTED_EDGE ( 'NONE', *, *, #31, .T. ) ;
#46 = DIRECTION ( 'NONE',  ( -0.000000000000000000, -0.000000000000000000, -1.000000000000000000 ) ) ;
#47 = DIRECTION ( 'NONE',  ( 1.000000000000000000, 0.000000000000000000, 0.000000000000000000 ) ) ;
#48 = DIRECTION ( 'NONE',  ( 0.000000000000000000, 0.000000000000000000, 1.000000000000000000 ) ) ;
#49 = EDGE_CURVE ( 'NONE', #105, #185, #140, .T. ) ;
#50 = DIRECTION ( 'NONE',  ( 0.000000000000000000, 1.000000000000000000, -0.000000000000000000 ) ) ;
#51 = LOCAL_TIME ( 13, 30, 40.00000000000000000, #196 ) ;
#52 = PERSON_AND_ORGANIZATION ( #26, #71 ) ;
#53 = PERSON_AND_ORGANIZATION_ROLE ( 'creator' ) ;
#54 = PERSON_AND_ORGANIZATION ( #26, #71 ) ;
#55 = AXIS2_PLACEMENT_3D ( 'NONE', #122, #61, #191 ) ;
#56 = UNCERTAINTY_MEASURE_WITH_UNIT (LENGTH_MEASURE( 1.000000000000000082E-05 ), #39, 'distance_accuracy_value', 'NONE');
#57 = PERSON_AND_ORGANIZATION ( #26, #71 ) ;
#58 = AXIS2_PLACEMENT_3D ( 'NONE', #83, #121, #143 ) ;
#59 = ADVANCED_FACE ( 'NONE', ( #37 ), #173, .F. ) ;
#60 = ORIENTED_EDGE ( 'NONE', *, *, #15, .T. ) ;
#61 = DIRECTION ( 'NONE',  ( 0.000000000000000000, -1.000000000000000000, -0.000000000000000000 ) ) ;
#62 = APPROVAL_PERSON_ORGANIZATION ( #54, #2, #181 ) ;
#63 = CARTESIAN_POINT ( 'NONE',  ( -12.69999999999999929, 0.000000000000000000, 6.000000000000000000 ) ) ;
#64 = CARTESIAN_POINT ( 'NONE',  ( 5.653361845870005354E-14, 0.000000000000000000, 5.731062787959984028 ) ) ;
#65 = CARTESIAN_POINT ( 'NONE',  ( 3.816391647148975608E-14, 0.000000000000000000, 6.000000000000005329 ) ) ;
#66 = SECURITY_CLASSIFICATION ( '', '', #10 ) ;
#67 = DIRECTION ( 'NONE',  ( 0.000000000000000000, 0.000000000000000000, 1.000000000000000000 ) ) ;
#68 = APPLICATION_PROTOCOL_DEFINITION ( 'international standard', 'config_control_design', 1994, #168 ) ;
#69 = PERSON_AND_ORGANIZATION ( #26, #71 ) ;
#70 = DATE_AND_TIME ( #84, #184 ) ;
#71 = ORGANIZATION ( 'UNSPECIFIED', 'UNSPECIFIED', '' ) ;
#72 = CC_DESIGN_PERSON_AND_ORGANIZATION_ASSIGNMENT ( #156, #25, ( #100 ) ) ;
#73 = ORIENTED_EDGE ( 'NONE', *, *, #40, .T. ) ;
#74 = ORIENTED_EDGE ( 'NONE', *, *, #118, .T. ) ;
#75 = VERTEX_POINT ( 'NONE', #77 ) ;
#76 = CC_DESIGN_APPROVAL ( #104, ( #5 ) ) ;
#77 = CARTESIAN_POINT ( 'NONE',  ( 12.69999999999982165, 1.555301434917127783E-15, 6.000000000000005329 ) ) ;
#78 = CARTESIAN_POINT ( 'NONE',  ( 3.816391647148975608E-14, 0.000000000000000000, 6.000000000000005329 ) ) ;
#79 = CC_DESIGN_DATE_AND_TIME_ASSIGNMENT ( #70, #131, ( #66 ) ) ;
#80 = CIRCLE ( 'NONE', #149, 300.0000000000000000 ) ;
#81 = CARTESIAN_POINT ( 'NONE',  ( 3.816391647148975608E-14, 0.000000000000000000, 305.7310627879599565 ) ) ;
#82 = CALENDAR_DATE ( 2021, 25, 2 ) ;
#83 = CARTESIAN_POINT ( 'NONE',  ( 0.000000000000000000, 0.000000000000000000, 6.000000000000000000 ) ) ;
#84 = CALENDAR_DATE ( 2021, 25, 2 ) ;
#85 = AXIS2_PLACEMENT_3D ( 'NONE', #24, #123, #141 ) ;
#86 = ORIENTED_EDGE ( 'NONE', *, *, #89, .F. ) ;
#87 = PRODUCT ( '010-1206E_UVFS_PCV_window', '010-1206E_UVFS_PCV_window', '', ( #13 ) ) ;
#88 = ORIENTED_EDGE ( 'NONE', *, *, #92, .T. ) ;
#89 = EDGE_CURVE ( 'NONE', #3, #19, #95, .T. ) ;
#90 = AXIS2_PLACEMENT_3D ( 'NONE', #34, #91, #154 ) ;
#91 = DIRECTION ( 'NONE',  ( -0.000000000000000000, -0.000000000000000000, -1.000000000000000000 ) ) ;
#92 = EDGE_CURVE ( 'NONE', #3, #105, #124, .T. ) ;
#93 = DIRECTION ( 'NONE',  ( 1.000000000000000000, 0.000000000000000000, -0.000000000000000000 ) ) ;
#94 = PERSON_AND_ORGANIZATION_ROLE ( 'creator' ) ;
#95 = CIRCLE ( 'NONE', #85, 300.0000000000000000 ) ;
#96 = DIRECTION ( 'NONE',  ( 1.000000000000000000, 0.000000000000000000, 0.000000000000000000 ) ) ;
#97 =( NAMED_UNIT ( * ) PLANE_ANGLE_UNIT ( ) SI_UNIT ( $, .RADIAN. ) );
#98 = DATE_AND_TIME ( #82, #51 ) ;
#99 = PERSON_AND_ORGANIZATION ( #26, #71 ) ;
#100 = PRODUCT_DEFINITION_FORMATION_WITH_SPECIFIED_SOURCE ( 'ANY', '', #87, .NOT_KNOWN. ) ;
#101 = LINE ( 'NONE', #179, #102 ) ;
#102 = VECTOR ( 'NONE', #46, 1000.000000000000000 ) ;
#103 = EDGE_LOOP ( 'NONE', ( #20, #60, #73, #170 ) ) ;
#104 = APPROVAL ( #182, 'UNSPECIFIED' ) ;
#105 = VERTEX_POINT ( 'NONE', #157 ) ;
#106 = ORIENTED_EDGE ( 'NONE', *, *, #31, .F. ) ;
#107 = CYLINDRICAL_SURFACE ( 'NONE', #90, 12.69999999999999929 ) ;
#108 = FACE_OUTER_BOUND ( 'NONE', #152, .T. ) ;
#109 = DATE_AND_TIME ( #28, #21 ) ;
#110 = DIRECTION ( 'NONE',  ( 0.000000000000000000, 0.000000000000000000, 1.000000000000000000 ) ) ;
#111 = AXIS2_PLACEMENT_3D ( 'NONE', #65, #197, #190 ) ;
#112 = FACE_OUTER_BOUND ( 'NONE', #120, .T. ) ;
#113 = ADVANCED_FACE ( 'NONE', ( #108 ), #172, .F. ) ;
#114 = APPROVAL_STATUS ( 'not_yet_approved' ) ;
#115 = VECTOR ( 'NONE', #11, 1000.000000000000000 ) ;
#116 = CIRCLE ( 'NONE', #111, 12.69999999999978257 ) ;
#117 = CARTESIAN_POINT ( 'NONE',  ( -12.69999999999974527, 0.000000000000000000, 6.000000000000005329 ) ) ;
#118 = EDGE_CURVE ( 'NONE', #75, #3, #136, .T. ) ;
#119 = AXIS2_PLACEMENT_3D ( 'NONE', #78, #9, #96 ) ;
#120 = EDGE_LOOP ( 'NONE', ( #169, #74, #88, #4 ) ) ;
#121 = DIRECTION ( 'NONE',  ( -0.000000000000000000, -0.000000000000000000, -1.000000000000000000 ) ) ;
#122 = CARTESIAN_POINT ( 'NONE',  ( 3.816391647148975608E-14, 0.000000000000000000, 305.7310627879599565 ) ) ;
#123 = DIRECTION ( 'NONE',  ( 1.224646799147353207E-16, -1.000000000000000000, 0.000000000000000000 ) ) ;
#124 = LINE ( 'NONE', #63, #115 ) ;
#125 = PRODUCT_RELATED_PRODUCT_CATEGORY ( 'detail', '', ( #87 ) ) ;
#126 = PERSON_AND_ORGANIZATION ( #26, #71 ) ;
#127 = CC_DESIGN_APPROVAL ( #2, ( #100 ) ) ;
#128 = PERSON_AND_ORGANIZATION_ROLE ( 'design_owner' ) ;
#129 = APPROVAL_ROLE ( '' ) ;
#130 = APPROVAL_DATE_TIME ( #162, #41 ) ;
#131 = DATE_TIME_ROLE ( 'classification_date' ) ;
#132 = COORDINATED_UNIVERSAL_TIME_OFFSET ( 2, 0, .AHEAD. ) ;
#133 = ORIENTED_EDGE ( 'NONE', *, *, #40, .F. ) ;
#134 = ORIENTED_EDGE ( 'NONE', *, *, #118, .F. ) ;
#135 = APPLICATION_CONTEXT ( 'configuration controlled 3d designs of mechanical parts and assemblies' ) ;
#136 = CIRCLE ( 'NONE', #119, 12.69999999999978257 ) ;
#137 = EDGE_LOOP ( 'NONE', ( #188, #133 ) ) ;
#138 = CARTESIAN_POINT ( 'NONE',  ( 0.000000000000000000, 0.000000000000000000, 0.000000000000000000 ) ) ;
#139 = DIRECTION ( 'NONE',  ( 0.000000000000000000, 0.000000000000000000, 1.000000000000000000 ) ) ;
#140 = CIRCLE ( 'NONE', #178, 12.69999999999999929 ) ;
#141 = DIRECTION ( 'NONE',  ( 1.000000000000000000, 1.224646799147353207E-16, 0.000000000000000000 ) ) ;
#142 = DIRECTION ( 'NONE',  ( 0.000000000000000000, -1.000000000000000000, -0.000000000000000000 ) ) ;
#143 = DIRECTION ( 'NONE',  ( -1.000000000000000000, 0.000000000000000000, 0.000000000000000000 ) ) ;
#144 = ADVANCED_FACE ( 'NONE', ( #35 ), #27, .T. ) ;
#145 = CC_DESIGN_APPROVAL ( #41, ( #66 ) ) ;
#146 =( NAMED_UNIT ( * ) SI_UNIT ( $, .STERADIAN. ) SOLID_ANGLE_UNIT ( ) );
#147 = CARTESIAN_POINT ( 'NONE',  ( 0.000000000000000000, 0.000000000000000000, 0.000000000000000000 ) ) ;
#148 = APPROVAL_STATUS ( 'not_yet_approved' ) ;
#149 = AXIS2_PLACEMENT_3D ( 'NONE', #81, #50, #139 ) ;
#150 = EDGE_CURVE ( 'NONE', #3, #75, #116, .T. ) ;
#151 = ORIENTED_EDGE ( 'NONE', *, *, #150, .F. ) ;
#152 = EDGE_LOOP ( 'NONE', ( #151, #32, #106 ) ) ;
#153 = PRODUCT_DEFINITION_SHAPE ( 'NONE', 'NONE',  #5 ) ;
#154 = DIRECTION ( 'NONE',  ( -1.000000000000000000, 0.000000000000000000, 0.000000000000000000 ) ) ;
#155 = FACE_OUTER_BOUND ( 'NONE', #186, .T. ) ;
#156 = PERSON_AND_ORGANIZATION ( #26, #71 ) ;
#157 = CARTESIAN_POINT ( 'NONE',  ( -12.69999999999999929, 0.000000000000000000, 0.000000000000000000 ) ) ;
#158 = DIRECTION ( 'NONE',  ( 1.000000000000000000, 0.000000000000000000, 0.000000000000000000 ) ) ;
#159 = DIRECTION ( 'NONE',  ( 1.000000000000000000, 0.000000000000000000, 0.000000000000000000 ) ) ;
#160 = DATE_TIME_ROLE ( 'creation_date' ) ;
#161 = COORDINATED_UNIVERSAL_TIME_OFFSET ( 2, 0, .AHEAD. ) ;
#162 = DATE_AND_TIME ( #17, #33 ) ;
#163 = CC_DESIGN_PERSON_AND_ORGANIZATION_ASSIGNMENT ( #52, #53, ( #5 ) ) ;
#164 = ADVANCED_FACE ( 'NONE', ( #112 ), #107, .T. ) ;
#165 = CIRCLE ( 'NONE', #8, 12.69999999999999929 ) ;
#166 = SHAPE_DEFINITION_REPRESENTATION ( #153, #6 ) ;
#167 = AXIS2_PLACEMENT_3D ( 'NONE', #180, #142, #159 ) ;
#168 = APPLICATION_CONTEXT ( 'configuration controlled 3d designs of mechanical parts and assemblies' ) ;
#169 = ORIENTED_EDGE ( 'NONE', *, *, #15, .F. ) ;
#170 = ORIENTED_EDGE ( 'NONE', *, *, #92, .F. ) ;
#171 = CC_DESIGN_SECURITY_CLASSIFICATION ( #66, ( #100 ) ) ;
#172 = SPHERICAL_SURFACE ( 'NONE', #55, 300.0000000000000000 ) ;
#173 = PLANE ( 'NONE',  #183 ) ;
#174 = CC_DESIGN_PERSON_AND_ORGANIZATION_ASSIGNMENT ( #99, #16, ( #66 ) ) ;
#175 = APPROVAL_DATE_TIME ( #109, #2 ) ;
#176 = DIRECTION ( 'NONE',  ( 1.000000000000000000, 0.000000000000000000, 0.000000000000000000 ) ) ;
#177 = SPHERICAL_SURFACE ( 'NONE', #167, 300.0000000000000000 ) ;
#178 = AXIS2_PLACEMENT_3D ( 'NONE', #138, #110, #176 ) ;
#179 = CARTESIAN_POINT ( 'NONE',  ( 12.69999999999999929, 1.555301434917138433E-15, 6.000000000000000000 ) ) ;
#180 = CARTESIAN_POINT ( 'NONE',  ( 3.816391647148975608E-14, 0.000000000000000000, 305.7310627879599565 ) ) ;
#181 = APPROVAL_ROLE ( '' ) ;
#182 = APPROVAL_STATUS ( 'not_yet_approved' ) ;
#183 = AXIS2_PLACEMENT_3D ( 'NONE', #22, #195, #93 ) ;
#184 = LOCAL_TIME ( 13, 30, 40.00000000000000000, #132 ) ;
#185 = VERTEX_POINT ( 'NONE', #23 ) ;
#186 = EDGE_LOOP ( 'NONE', ( #86, #134, #45 ) ) ;
#187 = AXIS2_PLACEMENT_3D ( 'NONE', #147, #67, #158 ) ;
#188 = ORIENTED_EDGE ( 'NONE', *, *, #49, .F. ) ;
#189 = ADVANCED_FACE ( 'NONE', ( #155 ), #177, .F. ) ;
#190 = DIRECTION ( 'NONE',  ( 1.000000000000000000, 0.000000000000000000, 0.000000000000000000 ) ) ;
#191 = DIRECTION ( 'NONE',  ( 1.000000000000000000, 0.000000000000000000, 0.000000000000000000 ) ) ;
#192 = CC_DESIGN_PERSON_AND_ORGANIZATION_ASSIGNMENT ( #36, #94, ( #100 ) ) ;
#193 = MANIFOLD_SOLID_BREP ( 'Cut-Revolve1', #38 ) ;
#194 = COORDINATED_UNIVERSAL_TIME_OFFSET ( 2, 0, .AHEAD. ) ;
#195 = DIRECTION ( 'NONE',  ( 0.000000000000000000, 0.000000000000000000, 1.000000000000000000 ) ) ;
#196 = COORDINATED_UNIVERSAL_TIME_OFFSET ( 2, 0, .AHEAD. ) ;
#197 = DIRECTION ( 'NONE',  ( -0.000000000000000000, -0.000000000000000000, -1.000000000000000000 ) ) ;
#198 = COORDINATED_UNIVERSAL_TIME_OFFSET ( 2, 0, .AHEAD. ) ;
#199 = LOCAL_TIME ( 13, 30, 40.00000000000000000, #198 ) ;
#200 = CALENDAR_DATE ( 2021, 25, 2 ) ;
#201 = DATE_AND_TIME ( #200, #199 ) ;
ENDSEC;
END-ISO-10303-21;
