ISO-10303-21;
HEADER;
FILE_DESCRIPTION (( 'STEP AP203' ),
    '1' );
FILE_NAME ('010-1205E_UVFS_PCV_window.STEP',
    '2021-02-25T11:30:23',
    ( '' ),
    ( '' ),
    'SwSTEP 2.0',
    'SolidWorks 2019',
    '' );
FILE_SCHEMA (( 'CONFIG_CONTROL_DESIGN' ));
ENDSEC;

DATA;
#1 = AXIS2_PLACEMENT_3D ( 'NONE', #154, #7, #137 ) ;
#2 = APPROVAL_STATUS ( 'not_yet_approved' ) ;
#3 = LOCAL_TIME ( 13, 30, 23.00000000000000000, #144 ) ;
#4 = APPLICATION_PROTOCOL_DEFINITION ( 'international standard', 'config_control_design', 1994, #61 ) ;
#5 = EDGE_CURVE ( 'NONE', #39, #156, #90, .T. ) ;
#6 = DIRECTION ( 'NONE',  ( 0.000000000000000000, 0.000000000000000000, 1.000000000000000000 ) ) ;
#7 = DIRECTION ( 'NONE',  ( 1.224646799147353207E-16, -1.000000000000000000, 0.000000000000000000 ) ) ;
#8 = ORIENTED_EDGE ( 'NONE', *, *, #5, .F. ) ;
#9 = CARTESIAN_POINT ( 'NONE',  ( 0.000000000000000000, 0.000000000000000000, 6.000000000000000000 ) ) ;
#10 = APPROVAL_DATE_TIME ( #43, #173 ) ;
#11 = CALENDAR_DATE ( 2021, 25, 2 ) ;
#12 = SECURITY_CLASSIFICATION_LEVEL ( 'unclassified' ) ;
#13 = AXIS2_PLACEMENT_3D ( 'NONE', #9, #197, #151 ) ;
#14 = COORDINATED_UNIVERSAL_TIME_OFFSET ( 2, 0, .AHEAD. ) ;
#15 = LOCAL_TIME ( 13, 30, 23.00000000000000000, #114 ) ;
#16 = PRODUCT_DEFINITION_SHAPE ( 'NONE', 'NONE',  #177 ) ;
#17 = FACE_OUTER_BOUND ( 'NONE', #196, .T. ) ;
#18 = EDGE_LOOP ( 'NONE', ( #186, #150, #195, #52 ) ) ;
#19 = CARTESIAN_POINT ( 'NONE',  ( 4.826783103290125356E-14, 0.000000000000000000, 5.677211615317423465 ) ) ;
#20 = CARTESIAN_POINT ( 'NONE',  ( 12.70000000000036344, 1.555301434917183003E-15, 6.000000000000005329 ) ) ;
#21 = CIRCLE ( 'NONE', #38, 250.0000000000000000 ) ;
#22 = VERTEX_POINT ( 'NONE', #140 ) ;
#23 = VERTEX_POINT ( 'NONE', #200 ) ;
#24 = DIRECTION ( 'NONE',  ( 0.000000000000000000, 1.000000000000000000, -0.000000000000000000 ) ) ;
#25 = CALENDAR_DATE ( 2021, 25, 2 ) ;
#26 = ADVANCED_FACE ( 'NONE', ( #180 ), #36, .F. ) ;
#27 = CALENDAR_DATE ( 2021, 25, 2 ) ;
#28 = DIRECTION ( 'NONE',  ( 0.000000000000000000, 0.000000000000000000, 1.000000000000000000 ) ) ;
#29 = AXIS2_PLACEMENT_3D ( 'NONE', #185, #88, #169 ) ;
#30 = EDGE_CURVE ( 'NONE', #39, #100, #21, .T. ) ;
#31 = APPROVAL_PERSON_ORGANIZATION ( #159, #33, #110 ) ;
#32 = CC_DESIGN_APPROVAL ( #173, ( #131 ) ) ;
#33 = APPROVAL ( #56, 'UNSPECIFIED' ) ;
#34 = DIRECTION ( 'NONE',  ( 1.000000000000000000, 0.000000000000000000, 0.000000000000000000 ) ) ;
#35 = CYLINDRICAL_SURFACE ( 'NONE', #13, 12.69999999999999929 ) ;
#36 = SPHERICAL_SURFACE ( 'NONE', #116, 250.0000000000000000 ) ;
#37 = DIRECTION ( 'NONE',  ( 1.000000000000000000, 0.000000000000000000, 0.000000000000000000 ) ) ;
#38 = AXIS2_PLACEMENT_3D ( 'NONE', #172, #24, #148 ) ;
#39 = VERTEX_POINT ( 'NONE', #20 ) ;
#40 = CC_DESIGN_APPROVAL ( #33, ( #177 ) ) ;
#41 = APPROVAL_ROLE ( '' ) ;
#42 = DATE_AND_TIME ( #25, #194 ) ;
#43 = DATE_AND_TIME ( #201, #3 ) ;
#44 = PERSON ( 'UNSPECIFIED', 'UNSPECIFIED', 'UNSPECIFIED', ('UNSPECIFIED'), ('UNSPECIFIED'), ('UNSPECIFIED') ) ;
#45 = EDGE_CURVE ( 'NONE', #22, #23, #133, .T. ) ;
#46 = AXIS2_PLACEMENT_3D ( 'NONE', #166, #64, #37 ) ;
#47 = CC_DESIGN_APPROVAL ( #179, ( #189 ) ) ;
#48 = DIRECTION ( 'NONE',  ( -0.000000000000000000, -0.000000000000000000, -1.000000000000000000 ) ) ;
#49 = CARTESIAN_POINT ( 'NONE',  ( 12.69999999999999929, 1.555301434917138433E-15, 6.000000000000000000 ) ) ;
#50 = DIRECTION ( 'NONE',  ( -0.000000000000000000, -0.000000000000000000, -1.000000000000000000 ) ) ;
#51 = CARTESIAN_POINT ( 'NONE',  ( 3.295974604355933479E-14, 0.000000000000000000, 255.6772116153174181 ) ) ;
#52 = ORIENTED_EDGE ( 'NONE', *, *, #45, .F. ) ;
#53 =( NAMED_UNIT ( * ) PLANE_ANGLE_UNIT ( ) SI_UNIT ( $, .RADIAN. ) );
#54 = PRODUCT_RELATED_PRODUCT_CATEGORY ( 'detail', '', ( #58 ) ) ;
#55 = PERSON_AND_ORGANIZATION_ROLE ( 'classification_officer' ) ;
#56 = APPROVAL_STATUS ( 'not_yet_approved' ) ;
#57 = APPROVAL_DATE_TIME ( #42, #33 ) ;
#58 = PRODUCT ( '010-1205E_UVFS_PCV_window', '010-1205E_UVFS_PCV_window', '', ( #74 ) ) ;
#59 = EDGE_CURVE ( 'NONE', #23, #156, #130, .T. ) ;
#60 = EDGE_CURVE ( 'NONE', #39, #22, #175, .T. ) ;
#61 = APPLICATION_CONTEXT ( 'configuration controlled 3d designs of mechanical parts and assemblies' ) ;
#62 = LOCAL_TIME ( 13, 30, 23.00000000000000000, #80 ) ;
#63 = ORIENTED_EDGE ( 'NONE', *, *, #30, .T. ) ;
#64 = DIRECTION ( 'NONE',  ( -0.000000000000000000, -0.000000000000000000, -1.000000000000000000 ) ) ;
#65 = ORIENTED_EDGE ( 'NONE', *, *, #183, .T. ) ;
#66 = DIRECTION ( 'NONE',  ( 1.000000000000000000, 0.000000000000000000, -0.000000000000000000 ) ) ;
#67 = CARTESIAN_POINT ( 'NONE',  ( 0.000000000000000000, 0.000000000000000000, 0.000000000000000000 ) ) ;
#68 = EDGE_CURVE ( 'NONE', #156, #23, #168, .T. ) ;
#69 = SPHERICAL_SURFACE ( 'NONE', #77, 250.0000000000000000 ) ;
#70 = CARTESIAN_POINT ( 'NONE',  ( 0.000000000000000000, 0.000000000000000000, 6.000000000000000000 ) ) ;
#71 = ORIENTED_EDGE ( 'NONE', *, *, #59, .F. ) ;
#72 = CYLINDRICAL_SURFACE ( 'NONE', #97, 12.69999999999999929 ) ;
#73 = ADVANCED_FACE ( 'NONE', ( #17 ), #69, .F. ) ;
#74 = MECHANICAL_CONTEXT ( 'NONE', #96, 'mechanical' ) ;
#75 = COORDINATED_UNIVERSAL_TIME_OFFSET ( 2, 0, .AHEAD. ) ;
#76 = APPROVAL_STATUS ( 'not_yet_approved' ) ;
#77 = AXIS2_PLACEMENT_3D ( 'NONE', #51, #120, #181 ) ;
#78 = PERSON_AND_ORGANIZATION_ROLE ( 'creator' ) ;
#79 = AXIS2_PLACEMENT_3D ( 'NONE', #171, #28, #94 ) ;
#80 = COORDINATED_UNIVERSAL_TIME_OFFSET ( 2, 0, .AHEAD. ) ;
#81 = CARTESIAN_POINT ( 'NONE',  ( 0.000000000000000000, 0.000000000000000000, 0.000000000000000000 ) ) ;
#82 = AXIS2_PLACEMENT_3D ( 'NONE', #67, #198, #34 ) ;
#83 = ORIENTED_EDGE ( 'NONE', *, *, #60, .F. ) ;
#84 = DIRECTION ( 'NONE',  ( 0.000000000000000000, 0.000000000000000000, 1.000000000000000000 ) ) ;
#85 = ADVANCED_FACE ( 'NONE', ( #167 ), #122, .F. ) ;
#86 =( GEOMETRIC_REPRESENTATION_CONTEXT ( 3 ) GLOBAL_UNCERTAINTY_ASSIGNED_CONTEXT ( ( #95 ) ) GLOBAL_UNIT_ASSIGNED_CONTEXT ( ( #182, #53, #153 ) ) REPRESENTATION_CONTEXT ( 'NONE', 'WORKASPACE' ) );
#87 = CARTESIAN_POINT ( 'NONE',  ( -12.69999999999999929, 0.000000000000000000, 6.000000000000000000 ) ) ;
#88 = DIRECTION ( 'NONE',  ( -0.000000000000000000, -0.000000000000000000, -1.000000000000000000 ) ) ;
#89 = CARTESIAN_POINT ( 'NONE',  ( 12.69999999999999929, 1.555301434917138433E-15, 0.000000000000000000 ) ) ;
#90 = LINE ( 'NONE', #49, #112 ) ;
#91 = PERSON_AND_ORGANIZATION_ROLE ( 'design_owner' ) ;
#92 = PERSON_AND_ORGANIZATION_ROLE ( 'design_supplier' ) ;
#93 = PERSON_AND_ORGANIZATION ( #44, #155 ) ;
#94 = DIRECTION ( 'NONE',  ( 1.000000000000000000, 0.000000000000000000, 0.000000000000000000 ) ) ;
#95 = UNCERTAINTY_MEASURE_WITH_UNIT (LENGTH_MEASURE( 1.000000000000000082E-05 ), #182, 'distance_accuracy_value', 'NONE');
#96 = APPLICATION_CONTEXT ( 'configuration controlled 3d designs of mechanical parts and assemblies' ) ;
#97 = AXIS2_PLACEMENT_3D ( 'NONE', #70, #50, #139 ) ;
#98 = APPROVAL_PERSON_ORGANIZATION ( #190, #179, #41 ) ;
#99 = CC_DESIGN_PERSON_AND_ORGANIZATION_ASSIGNMENT ( #124, #115, ( #131 ) ) ;
#100 = VERTEX_POINT ( 'NONE', #19 ) ;
#101 = DIRECTION ( 'NONE',  ( 1.000000000000000000, 0.000000000000000000, 0.000000000000000000 ) ) ;
#102 = CC_DESIGN_DATE_AND_TIME_ASSIGNMENT ( #126, #141, ( #177 ) ) ;
#103 = DIRECTION ( 'NONE',  ( 1.000000000000000000, 0.000000000000000000, 0.000000000000000000 ) ) ;
#104 = FACE_OUTER_BOUND ( 'NONE', #118, .T. ) ;
#105 = AXIS2_PLACEMENT_3D ( 'NONE', #157, #6, #101 ) ;
#106 = ADVANCED_BREP_SHAPE_REPRESENTATION ( '010-1205E_UVFS_PCV_window', ( #129, #79 ), #86 ) ;
#107 = EDGE_CURVE ( 'NONE', #22, #39, #178, .T. ) ;
#108 = ORIENTED_EDGE ( 'NONE', *, *, #45, .T. ) ;
#109 = ORIENTED_EDGE ( 'NONE', *, *, #30, .F. ) ;
#110 = APPROVAL_ROLE ( '' ) ;
#111 = CALENDAR_DATE ( 2021, 25, 2 ) ;
#112 = VECTOR ( 'NONE', #184, 1000.000000000000000 ) ;
#113 = CC_DESIGN_PERSON_AND_ORGANIZATION_ASSIGNMENT ( #160, #55, ( #189 ) ) ;
#114 = COORDINATED_UNIVERSAL_TIME_OFFSET ( 2, 0, .AHEAD. ) ;
#115 = PERSON_AND_ORGANIZATION_ROLE ( 'creator' ) ;
#116 = AXIS2_PLACEMENT_3D ( 'NONE', #136, #152, #103 ) ;
#117 = LOCAL_TIME ( 13, 30, 23.00000000000000000, #75 ) ;
#118 = EDGE_LOOP ( 'NONE', ( #8, #134, #108, #123 ) ) ;
#119 = CC_DESIGN_PERSON_AND_ORGANIZATION_ASSIGNMENT ( #93, #92, ( #131 ) ) ;
#120 = DIRECTION ( 'NONE',  ( 0.000000000000000000, -1.000000000000000000, -0.000000000000000000 ) ) ;
#121 = ORIENTED_EDGE ( 'NONE', *, *, #183, .F. ) ;
#122 = PLANE ( 'NONE',  #162 ) ;
#123 = ORIENTED_EDGE ( 'NONE', *, *, #59, .T. ) ;
#124 = PERSON_AND_ORGANIZATION ( #44, #155 ) ;
#125 = SHAPE_DEFINITION_REPRESENTATION ( #16, #106 ) ;
#126 = DATE_AND_TIME ( #27, #62 ) ;
#127 = PERSON_AND_ORGANIZATION ( #44, #155 ) ;
#128 = CLOSED_SHELL ( 'NONE', ( #26, #132, #187, #85, #73 ) ) ;
#129 = MANIFOLD_SOLID_BREP ( 'Cut-Revolve1', #128 ) ;
#130 = CIRCLE ( 'NONE', #82, 12.69999999999999929 ) ;
#131 = PRODUCT_DEFINITION_FORMATION_WITH_SPECIFIED_SOURCE ( 'ANY', '', #58, .NOT_KNOWN. ) ;
#132 = ADVANCED_FACE ( 'NONE', ( #135 ), #35, .T. ) ;
#133 = LINE ( 'NONE', #87, #142 ) ;
#134 = ORIENTED_EDGE ( 'NONE', *, *, #60, .T. ) ;
#135 = FACE_OUTER_BOUND ( 'NONE', #18, .T. ) ;
#136 = CARTESIAN_POINT ( 'NONE',  ( 3.295974604355933479E-14, 0.000000000000000000, 255.6772116153174181 ) ) ;
#137 = DIRECTION ( 'NONE',  ( 1.000000000000000000, 1.224646799147353207E-16, 0.000000000000000000 ) ) ;
#138 = EDGE_LOOP ( 'NONE', ( #170, #65, #109 ) ) ;
#139 = DIRECTION ( 'NONE',  ( -1.000000000000000000, 0.000000000000000000, 0.000000000000000000 ) ) ;
#140 = CARTESIAN_POINT ( 'NONE',  ( -12.70000000000029594, 0.000000000000000000, 6.000000000000005329 ) ) ;
#141 = DATE_TIME_ROLE ( 'creation_date' ) ;
#142 = VECTOR ( 'NONE', #48, 1000.000000000000000 ) ;
#143 = APPROVAL_DATE_TIME ( #164, #179 ) ;
#144 = COORDINATED_UNIVERSAL_TIME_OFFSET ( 2, 0, .AHEAD. ) ;
#145 = CC_DESIGN_PERSON_AND_ORGANIZATION_ASSIGNMENT ( #163, #91, ( #58 ) ) ;
#146 = APPLICATION_PROTOCOL_DEFINITION ( 'international standard', 'config_control_design', 1994, #96 ) ;
#147 = CC_DESIGN_DATE_AND_TIME_ASSIGNMENT ( #176, #174, ( #189 ) ) ;
#148 = DIRECTION ( 'NONE',  ( 0.000000000000000000, 0.000000000000000000, 1.000000000000000000 ) ) ;
#149 = APPROVAL_PERSON_ORGANIZATION ( #127, #173, #192 ) ;
#150 = ORIENTED_EDGE ( 'NONE', *, *, #5, .T. ) ;
#151 = DIRECTION ( 'NONE',  ( -1.000000000000000000, 0.000000000000000000, 0.000000000000000000 ) ) ;
#152 = DIRECTION ( 'NONE',  ( 0.000000000000000000, -1.000000000000000000, -0.000000000000000000 ) ) ;
#153 =( NAMED_UNIT ( * ) SI_UNIT ( $, .STERADIAN. ) SOLID_ANGLE_UNIT ( ) );
#154 = CARTESIAN_POINT ( 'NONE',  ( 3.295974604355933479E-14, 0.000000000000000000, 255.6772116153174181 ) ) ;
#155 = ORGANIZATION ( 'UNSPECIFIED', 'UNSPECIFIED', '' ) ;
#156 = VERTEX_POINT ( 'NONE', #89 ) ;
#157 = CARTESIAN_POINT ( 'NONE',  ( 0.000000000000000000, 0.000000000000000000, 0.000000000000000000 ) ) ;
#158 = CC_DESIGN_PERSON_AND_ORGANIZATION_ASSIGNMENT ( #191, #78, ( #177 ) ) ;
#159 = PERSON_AND_ORGANIZATION ( #44, #155 ) ;
#160 = PERSON_AND_ORGANIZATION ( #44, #155 ) ;
#161 = DESIGN_CONTEXT ( 'detailed design', #61, 'design' ) ;
#162 = AXIS2_PLACEMENT_3D ( 'NONE', #81, #84, #66 ) ;
#163 = PERSON_AND_ORGANIZATION ( #44, #155 ) ;
#164 = DATE_AND_TIME ( #111, #117 ) ;
#165 = CC_DESIGN_SECURITY_CLASSIFICATION ( #189, ( #131 ) ) ;
#166 = CARTESIAN_POINT ( 'NONE',  ( 3.295974604355933479E-14, 0.000000000000000000, 6.000000000000005329 ) ) ;
#167 = FACE_OUTER_BOUND ( 'NONE', #199, .T. ) ;
#168 = CIRCLE ( 'NONE', #105, 12.69999999999999929 ) ;
#169 = DIRECTION ( 'NONE',  ( 1.000000000000000000, 0.000000000000000000, 0.000000000000000000 ) ) ;
#170 = ORIENTED_EDGE ( 'NONE', *, *, #107, .F. ) ;
#171 = CARTESIAN_POINT ( 'NONE',  ( 0.000000000000000000, 0.000000000000000000, 0.000000000000000000 ) ) ;
#172 = CARTESIAN_POINT ( 'NONE',  ( 3.295974604355933479E-14, 0.000000000000000000, 255.6772116153174181 ) ) ;
#173 = APPROVAL ( #2, 'UNSPECIFIED' ) ;
#174 = DATE_TIME_ROLE ( 'classification_date' ) ;
#175 = CIRCLE ( 'NONE', #46, 12.70000000000032969 ) ;
#176 = DATE_AND_TIME ( #11, #15 ) ;
#177 = PRODUCT_DEFINITION ( 'UNKNOWN', '', #131, #161 ) ;
#178 = CIRCLE ( 'NONE', #29, 12.70000000000032969 ) ;
#179 = APPROVAL ( #76, 'UNSPECIFIED' ) ;
#180 = FACE_OUTER_BOUND ( 'NONE', #138, .T. ) ;
#181 = DIRECTION ( 'NONE',  ( 1.000000000000000000, 0.000000000000000000, 0.000000000000000000 ) ) ;
#182 =( LENGTH_UNIT ( ) NAMED_UNIT ( * ) SI_UNIT ( .MILLI., .METRE. ) );
#183 = EDGE_CURVE ( 'NONE', #22, #100, #193, .T. ) ;
#184 = DIRECTION ( 'NONE',  ( -0.000000000000000000, -0.000000000000000000, -1.000000000000000000 ) ) ;
#185 = CARTESIAN_POINT ( 'NONE',  ( 3.295974604355933479E-14, 0.000000000000000000, 6.000000000000005329 ) ) ;
#186 = ORIENTED_EDGE ( 'NONE', *, *, #107, .T. ) ;
#187 = ADVANCED_FACE ( 'NONE', ( #104 ), #72, .T. ) ;
#188 = ORIENTED_EDGE ( 'NONE', *, *, #68, .F. ) ;
#189 = SECURITY_CLASSIFICATION ( '', '', #12 ) ;
#190 = PERSON_AND_ORGANIZATION ( #44, #155 ) ;
#191 = PERSON_AND_ORGANIZATION ( #44, #155 ) ;
#192 = APPROVAL_ROLE ( '' ) ;
#193 = CIRCLE ( 'NONE', #1, 250.0000000000000000 ) ;
#194 = LOCAL_TIME ( 13, 30, 23.00000000000000000, #14 ) ;
#195 = ORIENTED_EDGE ( 'NONE', *, *, #68, .T. ) ;
#196 = EDGE_LOOP ( 'NONE', ( #121, #83, #63 ) ) ;
#197 = DIRECTION ( 'NONE',  ( -0.000000000000000000, -0.000000000000000000, -1.000000000000000000 ) ) ;
#198 = DIRECTION ( 'NONE',  ( 0.000000000000000000, 0.000000000000000000, 1.000000000000000000 ) ) ;
#199 = EDGE_LOOP ( 'NONE', ( #71, #188 ) ) ;
#200 = CARTESIAN_POINT ( 'NONE',  ( -12.69999999999999929, 0.000000000000000000, 0.000000000000000000 ) ) ;
#201 = CALENDAR_DATE ( 2021, 25, 2 ) ;
ENDSEC;
END-ISO-10303-21;
