ISO-10303-21;
HEADER;
FILE_DESCRIPTION (( 'STEP AP203' ),
    '1' );
FILE_NAME ('010-1204E_UVFS_PCV_window.STEP',
    '2021-02-25T11:29:52',
    ( '' ),
    ( '' ),
    'SwSTEP 2.0',
    'SolidWorks 2019',
    '' );
FILE_SCHEMA (( 'CONFIG_CONTROL_DESIGN' ));
ENDSEC;

DATA;
#1 = ADVANCED_FACE ( 'NONE', ( #100 ), #170, .F. ) ;
#2 = APPROVAL_ROLE ( '' ) ;
#3 = CIRCLE ( 'NONE', #181, 200.0000000000000000 ) ;
#4 = CC_DESIGN_SECURITY_CLASSIFICATION ( #15, ( #52 ) ) ;
#5 = CALENDAR_DATE ( 2021, 25, 2 ) ;
#6 = EDGE_CURVE ( 'NONE', #46, #69, #67, .T. ) ;
#7 = APPLICATION_PROTOCOL_DEFINITION ( 'international standard', 'config_control_design', 1994, #187 ) ;
#8 = APPROVAL_DATE_TIME ( #107, #186 ) ;
#9 = APPROVAL ( #54, 'UNSPECIFIED' ) ;
#10 = FACE_OUTER_BOUND ( 'NONE', #154, .T. ) ;
#11 = DESIGN_CONTEXT ( 'detailed design', #187, 'design' ) ;
#12 = CARTESIAN_POINT ( 'NONE',  ( 0.000000000000000000, 0.000000000000000000, 6.000000000000000000 ) ) ;
#13 = DIRECTION ( 'NONE',  ( -1.000000000000000000, 0.000000000000000000, 0.000000000000000000 ) ) ;
#14 = ORGANIZATION ( 'UNSPECIFIED', 'UNSPECIFIED', '' ) ;
#15 = SECURITY_CLASSIFICATION ( '', '', #165 ) ;
#16 = ADVANCED_FACE ( 'NONE', ( #10 ), #144, .T. ) ;
#17 = DIRECTION ( 'NONE',  ( 0.000000000000000000, -1.000000000000000000, -0.000000000000000000 ) ) ;
#18 = APPLICATION_CONTEXT ( 'configuration controlled 3d designs of mechanical parts and assemblies' ) ;
#19 = DIRECTION ( 'NONE',  ( -0.000000000000000000, -0.000000000000000000, -1.000000000000000000 ) ) ;
#20 = PERSON ( 'UNSPECIFIED', 'UNSPECIFIED', 'UNSPECIFIED', ('UNSPECIFIED'), ('UNSPECIFIED'), ('UNSPECIFIED') ) ;
#21 = ORIENTED_EDGE ( 'NONE', *, *, #148, .F. ) ;
#22 = VERTEX_POINT ( 'NONE', #70 ) ;
#23 = CARTESIAN_POINT ( 'NONE',  ( 12.69999999999999929, 1.555301434917138433E-15, 6.000000000000000000 ) ) ;
#24 = APPROVAL ( #159, 'UNSPECIFIED' ) ;
#25 = APPROVAL_ROLE ( '' ) ;
#26 = PERSON_AND_ORGANIZATION ( #20, #14 ) ;
#27 = CC_DESIGN_PERSON_AND_ORGANIZATION_ASSIGNMENT ( #99, #150, ( #15 ) ) ;
#28 = AXIS2_PLACEMENT_3D ( 'NONE', #79, #95, #162 ) ;
#29 = DIRECTION ( 'NONE',  ( 1.000000000000000000, 0.000000000000000000, 0.000000000000000000 ) ) ;
#30 = DATE_AND_TIME ( #145, #35 ) ;
#31 = PRODUCT_DEFINITION_SHAPE ( 'NONE', 'NONE',  #36 ) ;
#32 = DIRECTION ( 'NONE',  ( -0.000000000000000000, -0.000000000000000000, -1.000000000000000000 ) ) ;
#33 = DIRECTION ( 'NONE',  ( -1.000000000000000000, 0.000000000000000000, 0.000000000000000000 ) ) ;
#34 = COORDINATED_UNIVERSAL_TIME_OFFSET ( 2, 0, .AHEAD. ) ;
#35 = LOCAL_TIME ( 13, 29, 52.00000000000000000, #113 ) ;
#36 = PRODUCT_DEFINITION ( 'UNKNOWN', '', #52, #11 ) ;
#37 = DATE_TIME_ROLE ( 'creation_date' ) ;
#38 = APPROVAL_STATUS ( 'not_yet_approved' ) ;
#39 = COORDINATED_UNIVERSAL_TIME_OFFSET ( 2, 0, .AHEAD. ) ;
#40 =( LENGTH_UNIT ( ) NAMED_UNIT ( * ) SI_UNIT ( .MILLI., .METRE. ) );
#41 = AXIS2_PLACEMENT_3D ( 'NONE', #182, #80, #153 ) ;
#42 = DIRECTION ( 'NONE',  ( 0.000000000000000000, 0.000000000000000000, 1.000000000000000000 ) ) ;
#43 = FACE_OUTER_BOUND ( 'NONE', #60, .T. ) ;
#44 = DIRECTION ( 'NONE',  ( -0.000000000000000000, -0.000000000000000000, -1.000000000000000000 ) ) ;
#45 = ORIENTED_EDGE ( 'NONE', *, *, #114, .F. ) ;
#46 = VERTEX_POINT ( 'NONE', #146 ) ;
#47 = LINE ( 'NONE', #106, #71 ) ;
#48 = CIRCLE ( 'NONE', #118, 200.0000000000000000 ) ;
#49 = PERSON_AND_ORGANIZATION_ROLE ( 'creator' ) ;
#50 = PERSON_AND_ORGANIZATION ( #20, #14 ) ;
#51 = PERSON_AND_ORGANIZATION_ROLE ( 'design_supplier' ) ;
#52 = PRODUCT_DEFINITION_FORMATION_WITH_SPECIFIED_SOURCE ( 'ANY', '', #152, .NOT_KNOWN. ) ;
#53 = CYLINDRICAL_SURFACE ( 'NONE', #130, 12.69999999999999929 ) ;
#54 = APPROVAL_STATUS ( 'not_yet_approved' ) ;
#55 = AXIS2_PLACEMENT_3D ( 'NONE', #83, #19, #33 ) ;
#56 = SPHERICAL_SURFACE ( 'NONE', #102, 200.0000000000000000 ) ;
#57 = APPROVAL_ROLE ( '' ) ;
#58 = DIRECTION ( 'NONE',  ( 0.000000000000000000, 1.000000000000000000, -0.000000000000000000 ) ) ;
#59 = PERSON_AND_ORGANIZATION ( #20, #14 ) ;
#60 = EDGE_LOOP ( 'NONE', ( #62, #189, #172 ) ) ;
#61 = CARTESIAN_POINT ( 'NONE',  ( -12.69999999999999929, 0.000000000000000000, 0.000000000000000000 ) ) ;
#62 = ORIENTED_EDGE ( 'NONE', *, *, #142, .F. ) ;
#63 = DIRECTION ( 'NONE',  ( -0.000000000000000000, -0.000000000000000000, -1.000000000000000000 ) ) ;
#64 = PERSON_AND_ORGANIZATION ( #20, #14 ) ;
#65 = EDGE_CURVE ( 'NONE', #78, #133, #139, .T. ) ;
#66 = CARTESIAN_POINT ( 'NONE',  ( 2.602085213965210642E-14, 0.000000000000000000, 6.000000000000005329 ) ) ;
#67 = CIRCLE ( 'NONE', #28, 12.69999999999999929 ) ;
#68 = DIRECTION ( 'NONE',  ( 0.000000000000000000, -1.000000000000000000, -0.000000000000000000 ) ) ;
#69 = VERTEX_POINT ( 'NONE', #61 ) ;
#70 = CARTESIAN_POINT ( 'NONE',  ( 3.826732013112563385E-14, 0.000000000000000000, 5.596367702420890211 ) ) ;
#71 = VECTOR ( 'NONE', #63, 1000.000000000000000 ) ;
#72 = ADVANCED_FACE ( 'NONE', ( #43 ), #149, .F. ) ;
#73 = LOCAL_TIME ( 13, 29, 52.00000000000000000, #74 ) ;
#74 = COORDINATED_UNIVERSAL_TIME_OFFSET ( 2, 0, .AHEAD. ) ;
#75 = AXIS2_PLACEMENT_3D ( 'NONE', #180, #42, #97 ) ;
#76 = EDGE_CURVE ( 'NONE', #133, #78, #125, .T. ) ;
#77 = MECHANICAL_CONTEXT ( 'NONE', #18, 'mechanical' ) ;
#78 = VERTEX_POINT ( 'NONE', #194 ) ;
#79 = CARTESIAN_POINT ( 'NONE',  ( 0.000000000000000000, 0.000000000000000000, 0.000000000000000000 ) ) ;
#80 = DIRECTION ( 'NONE',  ( 0.000000000000000000, 0.000000000000000000, 1.000000000000000000 ) ) ;
#81 = CC_DESIGN_APPROVAL ( #186, ( #36 ) ) ;
#82 = FACE_OUTER_BOUND ( 'NONE', #101, .T. ) ;
#83 = CARTESIAN_POINT ( 'NONE',  ( 0.000000000000000000, 0.000000000000000000, 6.000000000000000000 ) ) ;
#84 =( GEOMETRIC_REPRESENTATION_CONTEXT ( 3 ) GLOBAL_UNCERTAINTY_ASSIGNED_CONTEXT ( ( #94 ) ) GLOBAL_UNIT_ASSIGNED_CONTEXT ( ( #40, #91, #92 ) ) REPRESENTATION_CONTEXT ( 'NONE', 'WORKASPACE' ) );
#85 = CC_DESIGN_DATE_AND_TIME_ASSIGNMENT ( #157, #37, ( #36 ) ) ;
#86 = CC_DESIGN_PERSON_AND_ORGANIZATION_ASSIGNMENT ( #191, #51, ( #52 ) ) ;
#87 = PERSON_AND_ORGANIZATION_ROLE ( 'design_owner' ) ;
#88 = CALENDAR_DATE ( 2021, 25, 2 ) ;
#89 = PERSON_AND_ORGANIZATION ( #20, #14 ) ;
#90 = AXIS2_PLACEMENT_3D ( 'NONE', #168, #17, #29 ) ;
#91 =( NAMED_UNIT ( * ) PLANE_ANGLE_UNIT ( ) SI_UNIT ( $, .RADIAN. ) );
#92 =( NAMED_UNIT ( * ) SI_UNIT ( $, .STERADIAN. ) SOLID_ANGLE_UNIT ( ) );
#93 = PRODUCT_RELATED_PRODUCT_CATEGORY ( 'detail', '', ( #152 ) ) ;
#94 = UNCERTAINTY_MEASURE_WITH_UNIT (LENGTH_MEASURE( 1.000000000000000082E-05 ), #40, 'distance_accuracy_value', 'NONE');
#95 = DIRECTION ( 'NONE',  ( 0.000000000000000000, 0.000000000000000000, 1.000000000000000000 ) ) ;
#96 = MANIFOLD_SOLID_BREP ( 'Cut-Revolve1', #201 ) ;
#97 = DIRECTION ( 'NONE',  ( 1.000000000000000000, 0.000000000000000000, 0.000000000000000000 ) ) ;
#98 = FACE_OUTER_BOUND ( 'NONE', #104, .T. ) ;
#99 = PERSON_AND_ORGANIZATION ( #20, #14 ) ;
#100 = FACE_OUTER_BOUND ( 'NONE', #135, .T. ) ;
#101 = EDGE_LOOP ( 'NONE', ( #188, #116, #173, #117 ) ) ;
#102 = AXIS2_PLACEMENT_3D ( 'NONE', #112, #68, #132 ) ;
#103 = ORIENTED_EDGE ( 'NONE', *, *, #114, .T. ) ;
#104 = EDGE_LOOP ( 'NONE', ( #179, #185, #184 ) ) ;
#105 = ADVANCED_FACE ( 'NONE', ( #82 ), #53, .T. ) ;
#106 = CARTESIAN_POINT ( 'NONE',  ( -12.69999999999999929, 0.000000000000000000, 6.000000000000000000 ) ) ;
#107 = DATE_AND_TIME ( #143, #160 ) ;
#108 = LOCAL_TIME ( 13, 29, 52.00000000000000000, #174 ) ;
#109 = DIRECTION ( 'NONE',  ( -0.000000000000000000, -0.000000000000000000, -1.000000000000000000 ) ) ;
#110 = DIRECTION ( 'NONE',  ( -0.000000000000000000, -0.000000000000000000, -1.000000000000000000 ) ) ;
#111 = AXIS2_PLACEMENT_3D ( 'NONE', #124, #138, #141 ) ;
#112 = CARTESIAN_POINT ( 'NONE',  ( 2.602085213965210642E-14, 0.000000000000000000, 205.5963677024209062 ) ) ;
#113 = COORDINATED_UNIVERSAL_TIME_OFFSET ( 2, 0, .AHEAD. ) ;
#114 = EDGE_CURVE ( 'NONE', #69, #46, #163, .T. ) ;
#115 = DIRECTION ( 'NONE',  ( 0.000000000000000000, 0.000000000000000000, 1.000000000000000000 ) ) ;
#116 = ORIENTED_EDGE ( 'NONE', *, *, #148, .T. ) ;
#117 = ORIENTED_EDGE ( 'NONE', *, *, #177, .F. ) ;
#118 = AXIS2_PLACEMENT_3D ( 'NONE', #120, #175, #140 ) ;
#119 = ORIENTED_EDGE ( 'NONE', *, *, #76, .T. ) ;
#120 = CARTESIAN_POINT ( 'NONE',  ( 2.602085213965210642E-14, 0.000000000000000000, 205.5963677024209062 ) ) ;
#121 = ADVANCED_FACE ( 'NONE', ( #98 ), #56, .F. ) ;
#122 = PERSON_AND_ORGANIZATION ( #20, #14 ) ;
#123 = PERSON_AND_ORGANIZATION_ROLE ( 'creator' ) ;
#124 = CARTESIAN_POINT ( 'NONE',  ( 0.000000000000000000, 0.000000000000000000, 0.000000000000000000 ) ) ;
#125 = CIRCLE ( 'NONE', #137, 12.70000000000005613 ) ;
#126 = CC_DESIGN_PERSON_AND_ORGANIZATION_ASSIGNMENT ( #50, #123, ( #52 ) ) ;
#127 = APPLICATION_PROTOCOL_DEFINITION ( 'international standard', 'config_control_design', 1994, #18 ) ;
#128 = ORIENTED_EDGE ( 'NONE', *, *, #6, .F. ) ;
#129 = DATE_TIME_ROLE ( 'classification_date' ) ;
#130 = AXIS2_PLACEMENT_3D ( 'NONE', #12, #110, #13 ) ;
#131 = CC_DESIGN_APPROVAL ( #9, ( #15 ) ) ;
#132 = DIRECTION ( 'NONE',  ( 1.000000000000000000, 0.000000000000000000, 0.000000000000000000 ) ) ;
#133 = VERTEX_POINT ( 'NONE', #195 ) ;
#134 = CARTESIAN_POINT ( 'NONE',  ( 2.602085213965210642E-14, 0.000000000000000000, 6.000000000000005329 ) ) ;
#135 = EDGE_LOOP ( 'NONE', ( #45, #128 ) ) ;
#136 = EDGE_CURVE ( 'NONE', #133, #22, #3, .T. ) ;
#137 = AXIS2_PLACEMENT_3D ( 'NONE', #66, #44, #166 ) ;
#138 = DIRECTION ( 'NONE',  ( 0.000000000000000000, 0.000000000000000000, 1.000000000000000000 ) ) ;
#139 = CIRCLE ( 'NONE', #155, 12.70000000000005613 ) ;
#140 = DIRECTION ( 'NONE',  ( 1.000000000000000000, 1.224646799147353207E-16, 0.000000000000000000 ) ) ;
#141 = DIRECTION ( 'NONE',  ( 1.000000000000000000, 0.000000000000000000, 0.000000000000000000 ) ) ;
#142 = EDGE_CURVE ( 'NONE', #78, #22, #48, .T. ) ;
#143 = CALENDAR_DATE ( 2021, 25, 2 ) ;
#144 = CYLINDRICAL_SURFACE ( 'NONE', #55, 12.69999999999999929 ) ;
#145 = CALENDAR_DATE ( 2021, 25, 2 ) ;
#146 = CARTESIAN_POINT ( 'NONE',  ( 12.69999999999999929, 1.555301434917138433E-15, 0.000000000000000000 ) ) ;
#147 = SHAPE_DEFINITION_REPRESENTATION ( #31, #158 ) ;
#148 = EDGE_CURVE ( 'NONE', #133, #46, #161, .T. ) ;
#149 = SPHERICAL_SURFACE ( 'NONE', #90, 200.0000000000000000 ) ;
#150 = PERSON_AND_ORGANIZATION_ROLE ( 'classification_officer' ) ;
#151 = APPROVAL_PERSON_ORGANIZATION ( #64, #186, #2 ) ;
#152 = PRODUCT ( '010-1204E_UVFS_PCV_window', '010-1204E_UVFS_PCV_window', '', ( #77 ) ) ;
#153 = DIRECTION ( 'NONE',  ( 1.000000000000000000, 0.000000000000000000, -0.000000000000000000 ) ) ;
#154 = EDGE_LOOP ( 'NONE', ( #21, #119, #164, #103 ) ) ;
#155 = AXIS2_PLACEMENT_3D ( 'NONE', #134, #32, #199 ) ;
#156 = LOCAL_TIME ( 13, 29, 52.00000000000000000, #34 ) ;
#157 = DATE_AND_TIME ( #88, #108 ) ;
#158 = ADVANCED_BREP_SHAPE_REPRESENTATION ( '010-1204E_UVFS_PCV_window', ( #96, #111 ), #84 ) ;
#159 = APPROVAL_STATUS ( 'not_yet_approved' ) ;
#160 = LOCAL_TIME ( 13, 29, 52.00000000000000000, #39 ) ;
#161 = LINE ( 'NONE', #23, #176 ) ;
#162 = DIRECTION ( 'NONE',  ( 1.000000000000000000, 0.000000000000000000, 0.000000000000000000 ) ) ;
#163 = CIRCLE ( 'NONE', #75, 12.69999999999999929 ) ;
#164 = ORIENTED_EDGE ( 'NONE', *, *, #177, .T. ) ;
#165 = SECURITY_CLASSIFICATION_LEVEL ( 'unclassified' ) ;
#166 = DIRECTION ( 'NONE',  ( 1.000000000000000000, 0.000000000000000000, 0.000000000000000000 ) ) ;
#167 = DATE_AND_TIME ( #196, #156 ) ;
#168 = CARTESIAN_POINT ( 'NONE',  ( 2.602085213965210642E-14, 0.000000000000000000, 205.5963677024209062 ) ) ;
#169 = APPROVAL_PERSON_ORGANIZATION ( #26, #24, #25 ) ;
#170 = PLANE ( 'NONE',  #41 ) ;
#171 = CC_DESIGN_PERSON_AND_ORGANIZATION_ASSIGNMENT ( #89, #49, ( #36 ) ) ;
#172 = ORIENTED_EDGE ( 'NONE', *, *, #136, .T. ) ;
#173 = ORIENTED_EDGE ( 'NONE', *, *, #6, .T. ) ;
#174 = COORDINATED_UNIVERSAL_TIME_OFFSET ( 2, 0, .AHEAD. ) ;
#175 = DIRECTION ( 'NONE',  ( 1.224646799147353207E-16, -1.000000000000000000, 0.000000000000000000 ) ) ;
#176 = VECTOR ( 'NONE', #109, 1000.000000000000000 ) ;
#177 = EDGE_CURVE ( 'NONE', #78, #69, #47, .T. ) ;
#178 = APPROVAL_DATE_TIME ( #190, #24 ) ;
#179 = ORIENTED_EDGE ( 'NONE', *, *, #65, .F. ) ;
#180 = CARTESIAN_POINT ( 'NONE',  ( 0.000000000000000000, 0.000000000000000000, 0.000000000000000000 ) ) ;
#181 = AXIS2_PLACEMENT_3D ( 'NONE', #197, #58, #115 ) ;
#182 = CARTESIAN_POINT ( 'NONE',  ( 0.000000000000000000, 0.000000000000000000, 0.000000000000000000 ) ) ;
#183 = APPROVAL_DATE_TIME ( #30, #9 ) ;
#184 = ORIENTED_EDGE ( 'NONE', *, *, #136, .F. ) ;
#185 = ORIENTED_EDGE ( 'NONE', *, *, #142, .T. ) ;
#186 = APPROVAL ( #38, 'UNSPECIFIED' ) ;
#187 = APPLICATION_CONTEXT ( 'configuration controlled 3d designs of mechanical parts and assemblies' ) ;
#188 = ORIENTED_EDGE ( 'NONE', *, *, #65, .T. ) ;
#189 = ORIENTED_EDGE ( 'NONE', *, *, #76, .F. ) ;
#190 = DATE_AND_TIME ( #5, #73 ) ;
#191 = PERSON_AND_ORGANIZATION ( #20, #14 ) ;
#192 = CC_DESIGN_APPROVAL ( #24, ( #52 ) ) ;
#193 = APPROVAL_PERSON_ORGANIZATION ( #59, #9, #57 ) ;
#194 = CARTESIAN_POINT ( 'NONE',  ( -12.70000000000003126, 0.000000000000000000, 6.000000000000005329 ) ) ;
#195 = CARTESIAN_POINT ( 'NONE',  ( 12.70000000000008455, 1.555301434917148885E-15, 6.000000000000005329 ) ) ;
#196 = CALENDAR_DATE ( 2021, 25, 2 ) ;
#197 = CARTESIAN_POINT ( 'NONE',  ( 2.602085213965210642E-14, 0.000000000000000000, 205.5963677024209062 ) ) ;
#198 = CC_DESIGN_PERSON_AND_ORGANIZATION_ASSIGNMENT ( #122, #87, ( #152 ) ) ;
#199 = DIRECTION ( 'NONE',  ( 1.000000000000000000, 0.000000000000000000, 0.000000000000000000 ) ) ;
#200 = CC_DESIGN_DATE_AND_TIME_ASSIGNMENT ( #167, #129, ( #15 ) ) ;
#201 = CLOSED_SHELL ( 'NONE', ( #121, #105, #16, #1, #72 ) ) ;
ENDSEC;
END-ISO-10303-21;
