ISO-10303-21;
HEADER;
FILE_DESCRIPTION (( 'STEP AP203' ),
    '1' );
FILE_NAME ('010-1203E_UVFS_PCV_window.STEP',
    '2021-02-25T11:29:25',
    ( '' ),
    ( '' ),
    'SwSTEP 2.0',
    'SolidWorks 2019',
    '' );
FILE_SCHEMA (( 'CONFIG_CONTROL_DESIGN' ));
ENDSEC;

DATA;
#1 = CARTESIAN_POINT ( 'NONE',  ( 0.000000000000000000, 0.000000000000000000, 0.000000000000000000 ) ) ;
#2 = EDGE_CURVE ( 'NONE', #174, #45, #189, .T. ) ;
#3 =( NAMED_UNIT ( * ) SI_UNIT ( $, .STERADIAN. ) SOLID_ANGLE_UNIT ( ) );
#4 = CARTESIAN_POINT ( 'NONE',  ( -12.69999999999999929, 0.000000000000000000, 0.000000000000000000 ) ) ;
#5 = DIRECTION ( 'NONE',  ( 1.000000000000000000, 0.000000000000000000, 0.000000000000000000 ) ) ;
#6 = ADVANCED_FACE ( 'NONE', ( #36 ), #78, .F. ) ;
#7 = APPLICATION_PROTOCOL_DEFINITION ( 'international standard', 'config_control_design', 1994, #106 ) ;
#8 = CC_DESIGN_SECURITY_CLASSIFICATION ( #130, ( #140 ) ) ;
#9 = APPROVAL_STATUS ( 'not_yet_approved' ) ;
#10 = COORDINATED_UNIVERSAL_TIME_OFFSET ( 2, 0, .AHEAD. ) ;
#11 = PERSON_AND_ORGANIZATION_ROLE ( 'classification_officer' ) ;
#12 = CLOSED_SHELL ( 'NONE', ( #6, #40, #24, #65, #16 ) ) ;
#13 = VERTEX_POINT ( 'NONE', #48 ) ;
#14 = EDGE_LOOP ( 'NONE', ( #123, #172, #157, #126 ) ) ;
#15 = AXIS2_PLACEMENT_3D ( 'NONE', #131, #111, #164 ) ;
#16 = ADVANCED_FACE ( 'NONE', ( #51 ), #141, .F. ) ;
#17 = EDGE_LOOP ( 'NONE', ( #160, #44, #199 ) ) ;
#18 = CC_DESIGN_DATE_AND_TIME_ASSIGNMENT ( #70, #25, ( #80 ) ) ;
#19 = PRODUCT ( '010-1203E_UVFS_PCV_window', '010-1203E_UVFS_PCV_window', '', ( #169 ) ) ;
#20 = DIRECTION ( 'NONE',  ( 1.224646799147353207E-16, -1.000000000000000000, 0.000000000000000000 ) ) ;
#21 = DIRECTION ( 'NONE',  ( -0.000000000000000000, -0.000000000000000000, -1.000000000000000000 ) ) ;
#22 = VECTOR ( 'NONE', #81, 1000.000000000000000 ) ;
#23 = LINE ( 'NONE', #83, #22 ) ;
#24 = ADVANCED_FACE ( 'NONE', ( #113 ), #115, .T. ) ;
#25 = DATE_TIME_ROLE ( 'creation_date' ) ;
#26 = COORDINATED_UNIVERSAL_TIME_OFFSET ( 2, 0, .AHEAD. ) ;
#27 = PERSON_AND_ORGANIZATION_ROLE ( 'design_supplier' ) ;
#28 = COORDINATED_UNIVERSAL_TIME_OFFSET ( 2, 0, .AHEAD. ) ;
#29 = EDGE_LOOP ( 'NONE', ( #89, #60, #47, #186 ) ) ;
#30 = CC_DESIGN_APPROVAL ( #197, ( #80 ) ) ;
#31 = PERSON ( 'UNSPECIFIED', 'UNSPECIFIED', 'UNSPECIFIED', ('UNSPECIFIED'), ('UNSPECIFIED'), ('UNSPECIFIED') ) ;
#32 = ORIENTED_EDGE ( 'NONE', *, *, #188, .F. ) ;
#33 =( LENGTH_UNIT ( ) NAMED_UNIT ( * ) SI_UNIT ( .MILLI., .METRE. ) );
#34 = AXIS2_PLACEMENT_3D ( 'NONE', #66, #163, #5 ) ;
#35 = APPLICATION_CONTEXT ( 'configuration controlled 3d designs of mechanical parts and assemblies' ) ;
#36 = FACE_OUTER_BOUND ( 'NONE', #139, .T. ) ;
#37 = DIRECTION ( 'NONE',  ( 0.000000000000000000, 0.000000000000000000, 1.000000000000000000 ) ) ;
#38 = FACE_OUTER_BOUND ( 'NONE', #75, .T. ) ;
#39 = APPROVAL_STATUS ( 'not_yet_approved' ) ;
#40 = ADVANCED_FACE ( 'NONE', ( #192 ), #191, .T. ) ;
#41 = CARTESIAN_POINT ( 'NONE',  ( 0.000000000000000000, 0.000000000000000000, 0.000000000000000000 ) ) ;
#42 = CALENDAR_DATE ( 2021, 25, 2 ) ;
#43 = LOCAL_TIME ( 13, 29, 25.00000000000000000, #26 ) ;
#44 = ORIENTED_EDGE ( 'NONE', *, *, #175, .F. ) ;
#45 = VERTEX_POINT ( 'NONE', #132 ) ;
#46 = APPROVAL ( #9, 'UNSPECIFIED' ) ;
#47 = ORIENTED_EDGE ( 'NONE', *, *, #116, .T. ) ;
#48 = CARTESIAN_POINT ( 'NONE',  ( 12.70000000000007923, 1.555301434917148096E-15, 6.000000000000005329 ) ) ;
#49 =( NAMED_UNIT ( * ) PLANE_ANGLE_UNIT ( ) SI_UNIT ( $, .RADIAN. ) );
#50 = APPROVAL_PERSON_ORGANIZATION ( #196, #46, #181 ) ;
#51 = FACE_OUTER_BOUND ( 'NONE', #17, .T. ) ;
#52 = DIRECTION ( 'NONE',  ( -0.000000000000000000, -0.000000000000000000, -1.000000000000000000 ) ) ;
#53 = PERSON_AND_ORGANIZATION ( #31, #184 ) ;
#54 = SECURITY_CLASSIFICATION_LEVEL ( 'unclassified' ) ;
#55 = LOCAL_TIME ( 13, 29, 25.00000000000000000, #10 ) ;
#56 = VERTEX_POINT ( 'NONE', #178 ) ;
#57 = AXIS2_PLACEMENT_3D ( 'NONE', #91, #52, #201 ) ;
#58 = EDGE_CURVE ( 'NONE', #13, #45, #61, .T. ) ;
#59 = CARTESIAN_POINT ( 'NONE',  ( 2.081668171172168513E-14, 0.000000000000000000, 155.4613996990527198 ) ) ;
#60 = ORIENTED_EDGE ( 'NONE', *, *, #175, .T. ) ;
#61 = CIRCLE ( 'NONE', #198, 150.0000000000000000 ) ;
#62 = DIRECTION ( 'NONE',  ( 0.000000000000000000, 1.000000000000000000, -0.000000000000000000 ) ) ;
#63 = PRODUCT_DEFINITION_SHAPE ( 'NONE', 'NONE',  #80 ) ;
#64 = DIRECTION ( 'NONE',  ( -1.000000000000000000, 0.000000000000000000, 0.000000000000000000 ) ) ;
#65 = ADVANCED_FACE ( 'NONE', ( #38 ), #129, .F. ) ;
#66 = CARTESIAN_POINT ( 'NONE',  ( 2.081668171172168513E-14, 0.000000000000000000, 6.000000000000005329 ) ) ;
#67 = DIRECTION ( 'NONE',  ( 0.000000000000000000, -1.000000000000000000, -0.000000000000000000 ) ) ;
#68 = DESIGN_CONTEXT ( 'detailed design', #106, 'design' ) ;
#69 = DIRECTION ( 'NONE',  ( 0.000000000000000000, 0.000000000000000000, 1.000000000000000000 ) ) ;
#70 = DATE_AND_TIME ( #85, #92 ) ;
#71 = SHAPE_DEFINITION_REPRESENTATION ( #63, #136 ) ;
#72 = APPROVAL_DATE_TIME ( #155, #46 ) ;
#73 = EDGE_CURVE ( 'NONE', #174, #13, #74, .T. ) ;
#74 = CIRCLE ( 'NONE', #96, 12.70000000000005613 ) ;
#75 = EDGE_LOOP ( 'NONE', ( #32, #105 ) ) ;
#76 = CARTESIAN_POINT ( 'NONE',  ( 0.000000000000000000, 0.000000000000000000, 0.000000000000000000 ) ) ;
#77 = VECTOR ( 'NONE', #21, 1000.000000000000000 ) ;
#78 = SPHERICAL_SURFACE ( 'NONE', #162, 150.0000000000000000 ) ;
#79 = CARTESIAN_POINT ( 'NONE',  ( 0.000000000000000000, 0.000000000000000000, 0.000000000000000000 ) ) ;
#80 = PRODUCT_DEFINITION ( 'UNKNOWN', '', #140, #68 ) ;
#81 = DIRECTION ( 'NONE',  ( -0.000000000000000000, -0.000000000000000000, -1.000000000000000000 ) ) ;
#82 = APPROVAL_PERSON_ORGANIZATION ( #53, #108, #147 ) ;
#83 = CARTESIAN_POINT ( 'NONE',  ( -12.69999999999999929, 0.000000000000000000, 6.000000000000000000 ) ) ;
#84 = CALENDAR_DATE ( 2021, 25, 2 ) ;
#85 = CALENDAR_DATE ( 2021, 25, 2 ) ;
#86 = PERSON_AND_ORGANIZATION ( #31, #184 ) ;
#87 = CALENDAR_DATE ( 2021, 25, 2 ) ;
#88 = APPROVAL_PERSON_ORGANIZATION ( #182, #197, #151 ) ;
#89 = ORIENTED_EDGE ( 'NONE', *, *, #156, .F. ) ;
#90 = EDGE_CURVE ( 'NONE', #56, #107, #120, .T. ) ;
#91 = CARTESIAN_POINT ( 'NONE',  ( 0.000000000000000000, 0.000000000000000000, 6.000000000000000000 ) ) ;
#92 = LOCAL_TIME ( 13, 29, 25.00000000000000000, #195 ) ;
#93 = CC_DESIGN_PERSON_AND_ORGANIZATION_ASSIGNMENT ( #121, #27, ( #140 ) ) ;
#94 = CARTESIAN_POINT ( 'NONE',  ( 2.081668171172168513E-14, 0.000000000000000000, 155.4613996990527198 ) ) ;
#95 = DIRECTION ( 'NONE',  ( 1.000000000000000000, 0.000000000000000000, -0.000000000000000000 ) ) ;
#96 = AXIS2_PLACEMENT_3D ( 'NONE', #128, #97, #168 ) ;
#97 = DIRECTION ( 'NONE',  ( -0.000000000000000000, -0.000000000000000000, -1.000000000000000000 ) ) ;
#98 = APPROVAL_DATE_TIME ( #193, #197 ) ;
#99 = DATE_AND_TIME ( #135, #43 ) ;
#100 = UNCERTAINTY_MEASURE_WITH_UNIT (LENGTH_MEASURE( 1.000000000000000082E-05 ), #33, 'distance_accuracy_value', 'NONE');
#101 = DIRECTION ( 'NONE',  ( 1.000000000000000000, 0.000000000000000000, 0.000000000000000000 ) ) ;
#102 = LOCAL_TIME ( 13, 29, 25.00000000000000000, #28 ) ;
#103 = CC_DESIGN_PERSON_AND_ORGANIZATION_ASSIGNMENT ( #134, #180, ( #80 ) ) ;
#104 = DATE_TIME_ROLE ( 'classification_date' ) ;
#105 = ORIENTED_EDGE ( 'NONE', *, *, #90, .F. ) ;
#106 = APPLICATION_CONTEXT ( 'configuration controlled 3d designs of mechanical parts and assemblies' ) ;
#107 = VERTEX_POINT ( 'NONE', #4 ) ;
#108 = APPROVAL ( #119, 'UNSPECIFIED' ) ;
#109 = ORIENTED_EDGE ( 'NONE', *, *, #73, .F. ) ;
#110 = CARTESIAN_POINT ( 'NONE',  ( 2.081668171172168513E-14, 0.000000000000000000, 155.4613996990527198 ) ) ;
#111 = DIRECTION ( 'NONE',  ( 0.000000000000000000, -1.000000000000000000, -0.000000000000000000 ) ) ;
#112 = AXIS2_PLACEMENT_3D ( 'NONE', #1, #37, #95 ) ;
#113 = FACE_OUTER_BOUND ( 'NONE', #29, .T. ) ;
#114 = DIRECTION ( 'NONE',  ( 0.000000000000000000, 0.000000000000000000, 1.000000000000000000 ) ) ;
#115 = CYLINDRICAL_SURFACE ( 'NONE', #145, 12.69999999999999929 ) ;
#116 = EDGE_CURVE ( 'NONE', #174, #107, #23, .T. ) ;
#117 = PERSON_AND_ORGANIZATION_ROLE ( 'design_owner' ) ;
#118 = DATE_AND_TIME ( #87, #102 ) ;
#119 = APPROVAL_STATUS ( 'not_yet_approved' ) ;
#120 = CIRCLE ( 'NONE', #122, 12.69999999999999929 ) ;
#121 = PERSON_AND_ORGANIZATION ( #31, #184 ) ;
#122 = AXIS2_PLACEMENT_3D ( 'NONE', #79, #167, #143 ) ;
#123 = ORIENTED_EDGE ( 'NONE', *, *, #73, .T. ) ;
#124 = ORIENTED_EDGE ( 'NONE', *, *, #2, .T. ) ;
#125 = AXIS2_PLACEMENT_3D ( 'NONE', #41, #69, #101 ) ;
#126 = ORIENTED_EDGE ( 'NONE', *, *, #116, .F. ) ;
#127 = DIRECTION ( 'NONE',  ( 0.000000000000000000, 0.000000000000000000, 1.000000000000000000 ) ) ;
#128 = CARTESIAN_POINT ( 'NONE',  ( 2.081668171172168513E-14, 0.000000000000000000, 6.000000000000005329 ) ) ;
#129 = PLANE ( 'NONE',  #112 ) ;
#130 = SECURITY_CLASSIFICATION ( '', '', #54 ) ;
#131 = CARTESIAN_POINT ( 'NONE',  ( 2.081668171172168513E-14, 0.000000000000000000, 155.4613996990527198 ) ) ;
#132 = CARTESIAN_POINT ( 'NONE',  ( 3.000153270532683387E-14, 0.000000000000000000, 5.461399699052737589 ) ) ;
#133 = PERSON_AND_ORGANIZATION ( #31, #184 ) ;
#134 = PERSON_AND_ORGANIZATION ( #31, #184 ) ;
#135 = CALENDAR_DATE ( 2021, 25, 2 ) ;
#136 = ADVANCED_BREP_SHAPE_REPRESENTATION ( '010-1203E_UVFS_PCV_window', ( #171, #125 ), #150 ) ;
#137 = CIRCLE ( 'NONE', #34, 12.70000000000005613 ) ;
#138 = CC_DESIGN_PERSON_AND_ORGANIZATION_ASSIGNMENT ( #133, #117, ( #19 ) ) ;
#139 = EDGE_LOOP ( 'NONE', ( #109, #124, #161 ) ) ;
#140 = PRODUCT_DEFINITION_FORMATION_WITH_SPECIFIED_SOURCE ( 'ANY', '', #19, .NOT_KNOWN. ) ;
#141 = SPHERICAL_SURFACE ( 'NONE', #15, 150.0000000000000000 ) ;
#142 = CARTESIAN_POINT ( 'NONE',  ( -12.70000000000003659, 0.000000000000000000, 6.000000000000005329 ) ) ;
#143 = DIRECTION ( 'NONE',  ( 1.000000000000000000, 0.000000000000000000, 0.000000000000000000 ) ) ;
#144 = LINE ( 'NONE', #146, #77 ) ;
#145 = AXIS2_PLACEMENT_3D ( 'NONE', #176, #190, #64 ) ;
#146 = CARTESIAN_POINT ( 'NONE',  ( 12.69999999999999929, 1.555301434917138433E-15, 6.000000000000000000 ) ) ;
#147 = APPROVAL_ROLE ( '' ) ;
#148 = APPLICATION_PROTOCOL_DEFINITION ( 'international standard', 'config_control_design', 1994, #35 ) ;
#149 = COORDINATED_UNIVERSAL_TIME_OFFSET ( 2, 0, .AHEAD. ) ;
#150 =( GEOMETRIC_REPRESENTATION_CONTEXT ( 3 ) GLOBAL_UNCERTAINTY_ASSIGNED_CONTEXT ( ( #100 ) ) GLOBAL_UNIT_ASSIGNED_CONTEXT ( ( #33, #49, #3 ) ) REPRESENTATION_CONTEXT ( 'NONE', 'WORKASPACE' ) );
#151 = APPROVAL_ROLE ( '' ) ;
#152 = APPROVAL_DATE_TIME ( #118, #108 ) ;
#153 = PERSON_AND_ORGANIZATION_ROLE ( 'creator' ) ;
#154 = CC_DESIGN_PERSON_AND_ORGANIZATION_ASSIGNMENT ( #86, #11, ( #130 ) ) ;
#155 = DATE_AND_TIME ( #42, #159 ) ;
#156 = EDGE_CURVE ( 'NONE', #13, #56, #144, .T. ) ;
#157 = ORIENTED_EDGE ( 'NONE', *, *, #90, .T. ) ;
#158 = AXIS2_PLACEMENT_3D ( 'NONE', #76, #127, #187 ) ;
#159 = LOCAL_TIME ( 13, 29, 25.00000000000000000, #149 ) ;
#160 = ORIENTED_EDGE ( 'NONE', *, *, #2, .F. ) ;
#161 = ORIENTED_EDGE ( 'NONE', *, *, #58, .F. ) ;
#162 = AXIS2_PLACEMENT_3D ( 'NONE', #110, #67, #165 ) ;
#163 = DIRECTION ( 'NONE',  ( -0.000000000000000000, -0.000000000000000000, -1.000000000000000000 ) ) ;
#164 = DIRECTION ( 'NONE',  ( 1.000000000000000000, 0.000000000000000000, 0.000000000000000000 ) ) ;
#165 = DIRECTION ( 'NONE',  ( 1.000000000000000000, 0.000000000000000000, 0.000000000000000000 ) ) ;
#166 = CC_DESIGN_DATE_AND_TIME_ASSIGNMENT ( #99, #104, ( #130 ) ) ;
#167 = DIRECTION ( 'NONE',  ( 0.000000000000000000, 0.000000000000000000, 1.000000000000000000 ) ) ;
#168 = DIRECTION ( 'NONE',  ( 1.000000000000000000, 0.000000000000000000, 0.000000000000000000 ) ) ;
#169 = MECHANICAL_CONTEXT ( 'NONE', #35, 'mechanical' ) ;
#170 = CC_DESIGN_APPROVAL ( #46, ( #130 ) ) ;
#171 = MANIFOLD_SOLID_BREP ( 'Cut-Revolve1', #12 ) ;
#172 = ORIENTED_EDGE ( 'NONE', *, *, #156, .T. ) ;
#173 = CC_DESIGN_APPROVAL ( #108, ( #140 ) ) ;
#174 = VERTEX_POINT ( 'NONE', #142 ) ;
#175 = EDGE_CURVE ( 'NONE', #13, #174, #137, .T. ) ;
#176 = CARTESIAN_POINT ( 'NONE',  ( 0.000000000000000000, 0.000000000000000000, 6.000000000000000000 ) ) ;
#177 = DIRECTION ( 'NONE',  ( 1.000000000000000000, 1.224646799147353207E-16, 0.000000000000000000 ) ) ;
#178 = CARTESIAN_POINT ( 'NONE',  ( 12.69999999999999929, 1.555301434917138433E-15, 0.000000000000000000 ) ) ;
#179 = AXIS2_PLACEMENT_3D ( 'NONE', #59, #20, #177 ) ;
#180 = PERSON_AND_ORGANIZATION_ROLE ( 'creator' ) ;
#181 = APPROVAL_ROLE ( '' ) ;
#182 = PERSON_AND_ORGANIZATION ( #31, #184 ) ;
#183 = CIRCLE ( 'NONE', #158, 12.69999999999999929 ) ;
#184 = ORGANIZATION ( 'UNSPECIFIED', 'UNSPECIFIED', '' ) ;
#185 = PRODUCT_RELATED_PRODUCT_CATEGORY ( 'detail', '', ( #19 ) ) ;
#186 = ORIENTED_EDGE ( 'NONE', *, *, #188, .T. ) ;
#187 = DIRECTION ( 'NONE',  ( 1.000000000000000000, 0.000000000000000000, 0.000000000000000000 ) ) ;
#188 = EDGE_CURVE ( 'NONE', #107, #56, #183, .T. ) ;
#189 = CIRCLE ( 'NONE', #179, 150.0000000000000000 ) ;
#190 = DIRECTION ( 'NONE',  ( -0.000000000000000000, -0.000000000000000000, -1.000000000000000000 ) ) ;
#191 = CYLINDRICAL_SURFACE ( 'NONE', #57, 12.69999999999999929 ) ;
#192 = FACE_OUTER_BOUND ( 'NONE', #14, .T. ) ;
#193 = DATE_AND_TIME ( #84, #55 ) ;
#194 = PERSON_AND_ORGANIZATION ( #31, #184 ) ;
#195 = COORDINATED_UNIVERSAL_TIME_OFFSET ( 2, 0, .AHEAD. ) ;
#196 = PERSON_AND_ORGANIZATION ( #31, #184 ) ;
#197 = APPROVAL ( #39, 'UNSPECIFIED' ) ;
#198 = AXIS2_PLACEMENT_3D ( 'NONE', #94, #62, #114 ) ;
#199 = ORIENTED_EDGE ( 'NONE', *, *, #58, .T. ) ;
#200 = CC_DESIGN_PERSON_AND_ORGANIZATION_ASSIGNMENT ( #194, #153, ( #140 ) ) ;
#201 = DIRECTION ( 'NONE',  ( -1.000000000000000000, 0.000000000000000000, 0.000000000000000000 ) ) ;
ENDSEC;
END-ISO-10303-21;
