ISO-10303-21;
HEADER;
FILE_DESCRIPTION (( 'STEP AP203' ),
    '1' );
FILE_NAME ('010-1202E_UVFS_PCV_window.STEP',
    '2021-02-25T11:29:04',
    ( '' ),
    ( '' ),
    'SwSTEP 2.0',
    'SolidWorks 2019',
    '' );
FILE_SCHEMA (( 'CONFIG_CONTROL_DESIGN' ));
ENDSEC;

DATA;
#1 = APPROVAL_STATUS ( 'not_yet_approved' ) ;
#2 = APPROVAL_PERSON_ORGANIZATION ( #37, #16, #153 ) ;
#3 = CC_DESIGN_PERSON_AND_ORGANIZATION_ASSIGNMENT ( #38, #154, ( #67 ) ) ;
#4 = PERSON_AND_ORGANIZATION ( #78, #141 ) ;
#5 = DATE_TIME_ROLE ( 'creation_date' ) ;
#6 = ORIENTED_EDGE ( 'NONE', *, *, #17, .T. ) ;
#7 = COORDINATED_UNIVERSAL_TIME_OFFSET ( 2, 0, .AHEAD. ) ;
#8 = UNCERTAINTY_MEASURE_WITH_UNIT (LENGTH_MEASURE( 1.000000000000000082E-05 ), #86, 'distance_accuracy_value', 'NONE');
#9 = DIRECTION ( 'NONE',  ( 1.000000000000000000, 1.224646799147353207E-16, 0.000000000000000000 ) ) ;
#10 = APPROVAL_STATUS ( 'not_yet_approved' ) ;
#11 = CYLINDRICAL_SURFACE ( 'NONE', #12, 12.69999999999999929 ) ;
#12 = AXIS2_PLACEMENT_3D ( 'NONE', #197, #178, #48 ) ;
#13 = CARTESIAN_POINT ( 'NONE',  ( -12.69999999999997264, 0.000000000000000000, 6.000000000000005329 ) ) ;
#14 = CARTESIAN_POINT ( 'NONE',  ( -12.69999999999999929, 0.000000000000000000, 0.000000000000000000 ) ) ;
#15 = VECTOR ( 'NONE', #118, 1000.000000000000000 ) ;
#16 = APPROVAL ( #92, 'UNSPECIFIED' ) ;
#17 = EDGE_CURVE ( 'NONE', #42, #187, #80, .T. ) ;
#18 = CALENDAR_DATE ( 2021, 25, 2 ) ;
#19 = SECURITY_CLASSIFICATION_LEVEL ( 'unclassified' ) ;
#20 = AXIS2_PLACEMENT_3D ( 'NONE', #135, #104, #136 ) ;
#21 = CARTESIAN_POINT ( 'NONE',  ( 1.387778780781445676E-14, 0.000000000000000000, 105.1902717004041818 ) ) ;
#22 = VERTEX_POINT ( 'NONE', #74 ) ;
#23 = ORIENTED_EDGE ( 'NONE', *, *, #55, .F. ) ;
#24 = DATE_AND_TIME ( #170, #147 ) ;
#25 = ORIENTED_EDGE ( 'NONE', *, *, #110, .F. ) ;
#26 = CC_DESIGN_APPROVAL ( #91, ( #163 ) ) ;
#27 = EDGE_CURVE ( 'NONE', #114, #22, #50, .T. ) ;
#28 = DIRECTION ( 'NONE',  ( 1.224646799147353207E-16, -1.000000000000000000, 0.000000000000000000 ) ) ;
#29 = APPROVAL_ROLE ( '' ) ;
#30 = CARTESIAN_POINT ( 'NONE',  ( 0.000000000000000000, 0.000000000000000000, 0.000000000000000000 ) ) ;
#31 = CARTESIAN_POINT ( 'NONE',  ( 1.387778780781445676E-14, 0.000000000000000000, 6.000000000000005329 ) ) ;
#32 = APPROVAL_PERSON_ORGANIZATION ( #190, #66, #29 ) ;
#33 = CARTESIAN_POINT ( 'NONE',  ( 12.69999999999999929, 1.555301434917138433E-15, 6.000000000000000000 ) ) ;
#34 = SPHERICAL_SURFACE ( 'NONE', #94, 100.0000000000000000 ) ;
#35 = CLOSED_SHELL ( 'NONE', ( #183, #182, #99, #148, #151 ) ) ;
#36 = AXIS2_PLACEMENT_3D ( 'NONE', #45, #28, #9 ) ;
#37 = PERSON_AND_ORGANIZATION ( #78, #141 ) ;
#38 = PERSON_AND_ORGANIZATION ( #78, #141 ) ;
#39 = PERSON_AND_ORGANIZATION_ROLE ( 'classification_officer' ) ;
#40 = PRODUCT ( '010-1202E_UVFS_PCV_window', '010-1202E_UVFS_PCV_window', '', ( #139 ) ) ;
#41 = DIRECTION ( 'NONE',  ( 0.000000000000000000, 0.000000000000000000, 1.000000000000000000 ) ) ;
#42 = VERTEX_POINT ( 'NONE', #13 ) ;
#43 = APPROVAL_DATE_TIME ( #172, #91 ) ;
#44 = ORIENTED_EDGE ( 'NONE', *, *, #61, .T. ) ;
#45 = CARTESIAN_POINT ( 'NONE',  ( 1.387778780781445676E-14, 0.000000000000000000, 105.1902717004041818 ) ) ;
#46 = AXIS2_PLACEMENT_3D ( 'NONE', #181, #102, #167 ) ;
#47 = FACE_OUTER_BOUND ( 'NONE', #191, .T. ) ;
#48 = DIRECTION ( 'NONE',  ( -1.000000000000000000, 0.000000000000000000, 0.000000000000000000 ) ) ;
#49 = CC_DESIGN_PERSON_AND_ORGANIZATION_ASSIGNMENT ( #4, #185, ( #40 ) ) ;
#50 = LINE ( 'NONE', #33, #15 ) ;
#51 = APPLICATION_CONTEXT ( 'configuration controlled 3d designs of mechanical parts and assemblies' ) ;
#52 = PLANE ( 'NONE',  #46 ) ;
#53 = AXIS2_PLACEMENT_3D ( 'NONE', #31, #77, #75 ) ;
#54 = PERSON_AND_ORGANIZATION_ROLE ( 'creator' ) ;
#55 = EDGE_CURVE ( 'NONE', #42, #95, #179, .T. ) ;
#56 = APPROVAL_DATE_TIME ( #69, #16 ) ;
#57 = APPROVAL_DATE_TIME ( #101, #66 ) ;
#58 = ORIENTED_EDGE ( 'NONE', *, *, #81, .F. ) ;
#59 = ORIENTED_EDGE ( 'NONE', *, *, #121, .F. ) ;
#60 = LOCAL_TIME ( 13, 29, 4.000000000000000000, #7 ) ;
#61 = EDGE_CURVE ( 'NONE', #95, #22, #196, .T. ) ;
#62 = CARTESIAN_POINT ( 'NONE',  ( 0.000000000000000000, 0.000000000000000000, 0.000000000000000000 ) ) ;
#63 = CARTESIAN_POINT ( 'NONE',  ( -12.69999999999999929, 0.000000000000000000, 6.000000000000000000 ) ) ;
#64 = VECTOR ( 'NONE', #198, 1000.000000000000000 ) ;
#65 = DIRECTION ( 'NONE',  ( 0.000000000000000000, 0.000000000000000000, 1.000000000000000000 ) ) ;
#66 = APPROVAL ( #10, 'UNSPECIFIED' ) ;
#67 = PRODUCT_DEFINITION_FORMATION_WITH_SPECIFIED_SOURCE ( 'ANY', '', #40, .NOT_KNOWN. ) ;
#68 = PERSON_AND_ORGANIZATION ( #78, #141 ) ;
#69 = DATE_AND_TIME ( #18, #171 ) ;
#70 = APPLICATION_PROTOCOL_DEFINITION ( 'international standard', 'config_control_design', 1994, #184 ) ;
#71 = PERSON_AND_ORGANIZATION ( #78, #141 ) ;
#72 = ORIENTED_EDGE ( 'NONE', *, *, #121, .T. ) ;
#73 = ORIENTED_EDGE ( 'NONE', *, *, #55, .T. ) ;
#74 = CARTESIAN_POINT ( 'NONE',  ( 12.69999999999999929, 1.555301434917138433E-15, 0.000000000000000000 ) ) ;
#75 = DIRECTION ( 'NONE',  ( 1.000000000000000000, 0.000000000000000000, 0.000000000000000000 ) ) ;
#76 = CC_DESIGN_PERSON_AND_ORGANIZATION_ASSIGNMENT ( #68, #54, ( #67 ) ) ;
#77 = DIRECTION ( 'NONE',  ( -0.000000000000000000, -0.000000000000000000, -1.000000000000000000 ) ) ;
#78 = PERSON ( 'UNSPECIFIED', 'UNSPECIFIED', 'UNSPECIFIED', ('UNSPECIFIED'), ('UNSPECIFIED'), ('UNSPECIFIED') ) ;
#79 = CYLINDRICAL_SURFACE ( 'NONE', #20, 12.69999999999999929 ) ;
#80 = CIRCLE ( 'NONE', #36, 100.0000000000000000 ) ;
#81 = EDGE_CURVE ( 'NONE', #114, #187, #200, .T. ) ;
#82 = CC_DESIGN_DATE_AND_TIME_ASSIGNMENT ( #24, #5, ( #163 ) ) ;
#83 = DIRECTION ( 'NONE',  ( 1.000000000000000000, 0.000000000000000000, 0.000000000000000000 ) ) ;
#84 =( NAMED_UNIT ( * ) PLANE_ANGLE_UNIT ( ) SI_UNIT ( $, .RADIAN. ) );
#85 = ADVANCED_BREP_SHAPE_REPRESENTATION ( '010-1202E_UVFS_PCV_window', ( #177, #106 ), #169 ) ;
#86 =( LENGTH_UNIT ( ) NAMED_UNIT ( * ) SI_UNIT ( .MILLI., .METRE. ) );
#87 = AXIS2_PLACEMENT_3D ( 'NONE', #62, #162, #103 ) ;
#88 = DATE_AND_TIME ( #161, #111 ) ;
#89 = DIRECTION ( 'NONE',  ( 1.000000000000000000, 0.000000000000000000, 0.000000000000000000 ) ) ;
#90 = SECURITY_CLASSIFICATION ( '', '', #19 ) ;
#91 = APPROVAL ( #1, 'UNSPECIFIED' ) ;
#92 = APPROVAL_STATUS ( 'not_yet_approved' ) ;
#93 = COORDINATED_UNIVERSAL_TIME_OFFSET ( 2, 0, .AHEAD. ) ;
#94 = AXIS2_PLACEMENT_3D ( 'NONE', #146, #195, #117 ) ;
#95 = VERTEX_POINT ( 'NONE', #14 ) ;
#96 = PERSON_AND_ORGANIZATION ( #78, #141 ) ;
#97 = ORIENTED_EDGE ( 'NONE', *, *, #27, .F. ) ;
#98 = CC_DESIGN_APPROVAL ( #16, ( #67 ) ) ;
#99 = ADVANCED_FACE ( 'NONE', ( #119 ), #79, .T. ) ;
#100 = DIRECTION ( 'NONE',  ( 1.000000000000000000, 0.000000000000000000, 0.000000000000000000 ) ) ;
#101 = DATE_AND_TIME ( #192, #60 ) ;
#102 = DIRECTION ( 'NONE',  ( 0.000000000000000000, 0.000000000000000000, 1.000000000000000000 ) ) ;
#103 = DIRECTION ( 'NONE',  ( 1.000000000000000000, 0.000000000000000000, 0.000000000000000000 ) ) ;
#104 = DIRECTION ( 'NONE',  ( -0.000000000000000000, -0.000000000000000000, -1.000000000000000000 ) ) ;
#105 = APPLICATION_PROTOCOL_DEFINITION ( 'international standard', 'config_control_design', 1994, #51 ) ;
#106 = AXIS2_PLACEMENT_3D ( 'NONE', #143, #41, #140 ) ;
#107 = CARTESIAN_POINT ( 'NONE',  ( 2.000102180355122047E-14, 0.000000000000000000, 5.190271700404175625 ) ) ;
#108 = PERSON_AND_ORGANIZATION ( #78, #141 ) ;
#109 = ORIENTED_EDGE ( 'NONE', *, *, #61, .F. ) ;
#110 = EDGE_CURVE ( 'NONE', #42, #114, #133, .T. ) ;
#111 = LOCAL_TIME ( 13, 29, 4.000000000000000000, #93 ) ;
#112 = CALENDAR_DATE ( 2021, 25, 2 ) ;
#113 = ORIENTED_EDGE ( 'NONE', *, *, #81, .T. ) ;
#114 = VERTEX_POINT ( 'NONE', #134 ) ;
#115 = DATE_TIME_ROLE ( 'classification_date' ) ;
#116 = CC_DESIGN_SECURITY_CLASSIFICATION ( #90, ( #67 ) ) ;
#117 = DIRECTION ( 'NONE',  ( 1.000000000000000000, 0.000000000000000000, 0.000000000000000000 ) ) ;
#118 = DIRECTION ( 'NONE',  ( -0.000000000000000000, -0.000000000000000000, -1.000000000000000000 ) ) ;
#119 = FACE_OUTER_BOUND ( 'NONE', #193, .T. ) ;
#120 = FACE_OUTER_BOUND ( 'NONE', #173, .T. ) ;
#121 = EDGE_CURVE ( 'NONE', #114, #42, #174, .T. ) ;
#122 = LOCAL_TIME ( 13, 29, 4.000000000000000000, #188 ) ;
#123 = DIRECTION ( 'NONE',  ( 0.000000000000000000, -1.000000000000000000, -0.000000000000000000 ) ) ;
#124 = AXIS2_PLACEMENT_3D ( 'NONE', #166, #150, #65 ) ;
#125 = COORDINATED_UNIVERSAL_TIME_OFFSET ( 2, 0, .AHEAD. ) ;
#126 = ORIENTED_EDGE ( 'NONE', *, *, #175, .T. ) ;
#127 = PRODUCT_RELATED_PRODUCT_CATEGORY ( 'detail', '', ( #40 ) ) ;
#128 = SPHERICAL_SURFACE ( 'NONE', #168, 100.0000000000000000 ) ;
#129 = APPROVAL_ROLE ( '' ) ;
#130 = EDGE_LOOP ( 'NONE', ( #25, #6, #58 ) ) ;
#131 = PERSON_AND_ORGANIZATION_ROLE ( 'creator' ) ;
#132 = CARTESIAN_POINT ( 'NONE',  ( 1.387778780781445676E-14, 0.000000000000000000, 6.000000000000005329 ) ) ;
#133 = CIRCLE ( 'NONE', #53, 12.69999999999998685 ) ;
#134 = CARTESIAN_POINT ( 'NONE',  ( 12.70000000000000284, 1.555301434917138827E-15, 6.000000000000005329 ) ) ;
#135 = CARTESIAN_POINT ( 'NONE',  ( 0.000000000000000000, 0.000000000000000000, 6.000000000000000000 ) ) ;
#136 = DIRECTION ( 'NONE',  ( -1.000000000000000000, 0.000000000000000000, 0.000000000000000000 ) ) ;
#137 = CIRCLE ( 'NONE', #152, 12.69999999999999929 ) ;
#138 = CC_DESIGN_APPROVAL ( #66, ( #90 ) ) ;
#139 = MECHANICAL_CONTEXT ( 'NONE', #184, 'mechanical' ) ;
#140 = DIRECTION ( 'NONE',  ( 1.000000000000000000, 0.000000000000000000, 0.000000000000000000 ) ) ;
#141 = ORGANIZATION ( 'UNSPECIFIED', 'UNSPECIFIED', '' ) ;
#142 = PRODUCT_DEFINITION_SHAPE ( 'NONE', 'NONE',  #163 ) ;
#143 = CARTESIAN_POINT ( 'NONE',  ( 0.000000000000000000, 0.000000000000000000, 0.000000000000000000 ) ) ;
#144 = ORIENTED_EDGE ( 'NONE', *, *, #175, .F. ) ;
#145 = ORIENTED_EDGE ( 'NONE', *, *, #27, .T. ) ;
#146 = CARTESIAN_POINT ( 'NONE',  ( 1.387778780781445676E-14, 0.000000000000000000, 105.1902717004041818 ) ) ;
#147 = LOCAL_TIME ( 13, 29, 4.000000000000000000, #159 ) ;
#148 = ADVANCED_FACE ( 'NONE', ( #120 ), #52, .F. ) ;
#149 = FACE_OUTER_BOUND ( 'NONE', #186, .T. ) ;
#150 = DIRECTION ( 'NONE',  ( 0.000000000000000000, 1.000000000000000000, -0.000000000000000000 ) ) ;
#151 = ADVANCED_FACE ( 'NONE', ( #149 ), #34, .F. ) ;
#152 = AXIS2_PLACEMENT_3D ( 'NONE', #30, #176, #89 ) ;
#153 = APPROVAL_ROLE ( '' ) ;
#154 = PERSON_AND_ORGANIZATION_ROLE ( 'design_supplier' ) ;
#155 = CC_DESIGN_PERSON_AND_ORGANIZATION_ASSIGNMENT ( #108, #39, ( #90 ) ) ;
#156 =( NAMED_UNIT ( * ) SI_UNIT ( $, .STERADIAN. ) SOLID_ANGLE_UNIT ( ) );
#157 = AXIS2_PLACEMENT_3D ( 'NONE', #132, #199, #100 ) ;
#158 = ORIENTED_EDGE ( 'NONE', *, *, #110, .T. ) ;
#159 = COORDINATED_UNIVERSAL_TIME_OFFSET ( 2, 0, .AHEAD. ) ;
#160 = DESIGN_CONTEXT ( 'detailed design', #51, 'design' ) ;
#161 = CALENDAR_DATE ( 2021, 25, 2 ) ;
#162 = DIRECTION ( 'NONE',  ( 0.000000000000000000, 0.000000000000000000, 1.000000000000000000 ) ) ;
#163 = PRODUCT_DEFINITION ( 'UNKNOWN', '', #67, #160 ) ;
#164 = SHAPE_DEFINITION_REPRESENTATION ( #142, #85 ) ;
#165 = FACE_OUTER_BOUND ( 'NONE', #130, .T. ) ;
#166 = CARTESIAN_POINT ( 'NONE',  ( 1.387778780781445676E-14, 0.000000000000000000, 105.1902717004041818 ) ) ;
#167 = DIRECTION ( 'NONE',  ( 1.000000000000000000, 0.000000000000000000, -0.000000000000000000 ) ) ;
#168 = AXIS2_PLACEMENT_3D ( 'NONE', #21, #123, #83 ) ;
#169 =( GEOMETRIC_REPRESENTATION_CONTEXT ( 3 ) GLOBAL_UNCERTAINTY_ASSIGNED_CONTEXT ( ( #8 ) ) GLOBAL_UNIT_ASSIGNED_CONTEXT ( ( #86, #84, #156 ) ) REPRESENTATION_CONTEXT ( 'NONE', 'WORKASPACE' ) );
#170 = CALENDAR_DATE ( 2021, 25, 2 ) ;
#171 = LOCAL_TIME ( 13, 29, 4.000000000000000000, #125 ) ;
#172 = DATE_AND_TIME ( #112, #122 ) ;
#173 = EDGE_LOOP ( 'NONE', ( #109, #144 ) ) ;
#174 = CIRCLE ( 'NONE', #157, 12.69999999999998685 ) ;
#175 = EDGE_CURVE ( 'NONE', #22, #95, #137, .T. ) ;
#176 = DIRECTION ( 'NONE',  ( 0.000000000000000000, 0.000000000000000000, 1.000000000000000000 ) ) ;
#177 = MANIFOLD_SOLID_BREP ( 'Cut-Revolve1', #35 ) ;
#178 = DIRECTION ( 'NONE',  ( -0.000000000000000000, -0.000000000000000000, -1.000000000000000000 ) ) ;
#179 = LINE ( 'NONE', #63, #64 ) ;
#180 = CC_DESIGN_DATE_AND_TIME_ASSIGNMENT ( #88, #115, ( #90 ) ) ;
#181 = CARTESIAN_POINT ( 'NONE',  ( 0.000000000000000000, 0.000000000000000000, 0.000000000000000000 ) ) ;
#182 = ADVANCED_FACE ( 'NONE', ( #47 ), #11, .T. ) ;
#183 = ADVANCED_FACE ( 'NONE', ( #165 ), #128, .F. ) ;
#184 = APPLICATION_CONTEXT ( 'configuration controlled 3d designs of mechanical parts and assemblies' ) ;
#185 = PERSON_AND_ORGANIZATION_ROLE ( 'design_owner' ) ;
#186 = EDGE_LOOP ( 'NONE', ( #189, #59, #113 ) ) ;
#187 = VERTEX_POINT ( 'NONE', #107 ) ;
#188 = COORDINATED_UNIVERSAL_TIME_OFFSET ( 2, 0, .AHEAD. ) ;
#189 = ORIENTED_EDGE ( 'NONE', *, *, #17, .F. ) ;
#190 = PERSON_AND_ORGANIZATION ( #78, #141 ) ;
#191 = EDGE_LOOP ( 'NONE', ( #158, #145, #126, #23 ) ) ;
#192 = CALENDAR_DATE ( 2021, 25, 2 ) ;
#193 = EDGE_LOOP ( 'NONE', ( #97, #72, #73, #44 ) ) ;
#194 = CC_DESIGN_PERSON_AND_ORGANIZATION_ASSIGNMENT ( #96, #131, ( #163 ) ) ;
#195 = DIRECTION ( 'NONE',  ( 0.000000000000000000, -1.000000000000000000, -0.000000000000000000 ) ) ;
#196 = CIRCLE ( 'NONE', #87, 12.69999999999999929 ) ;
#197 = CARTESIAN_POINT ( 'NONE',  ( 0.000000000000000000, 0.000000000000000000, 6.000000000000000000 ) ) ;
#198 = DIRECTION ( 'NONE',  ( -0.000000000000000000, -0.000000000000000000, -1.000000000000000000 ) ) ;
#199 = DIRECTION ( 'NONE',  ( -0.000000000000000000, -0.000000000000000000, -1.000000000000000000 ) ) ;
#200 = CIRCLE ( 'NONE', #124, 100.0000000000000000 ) ;
#201 = APPROVAL_PERSON_ORGANIZATION ( #71, #91, #129 ) ;
ENDSEC;
END-ISO-10303-21;
