ISO-10303-21;
HEADER;
FILE_DESCRIPTION (( 'STEP AP203' ),
    '1' );
FILE_NAME ('010-1201E_UVFS_PCV_window.STEP',
    '2021-02-25T11:28:19',
    ( '' ),
    ( '' ),
    'SwSTEP 2.0',
    'SolidWorks 2019',
    '' );
FILE_SCHEMA (( 'CONFIG_CONTROL_DESIGN' ));
ENDSEC;

DATA;
#1 = APPROVAL_PERSON_ORGANIZATION ( #45, #56, #131 ) ;
#2 = CARTESIAN_POINT ( 'NONE',  ( 12.70000000000004725, 1.555301434917144349E-15, 5.999999999999998224 ) ) ;
#3 = DATE_AND_TIME ( #149, #6 ) ;
#4 = DATE_AND_TIME ( #146, #189 ) ;
#5 = AXIS2_PLACEMENT_3D ( 'NONE', #60, #61, #79 ) ;
#6 = LOCAL_TIME ( 13, 28, 19.00000000000000000, #169 ) ;
#7 = APPROVAL_STATUS ( 'not_yet_approved' ) ;
#8 = EDGE_CURVE ( 'NONE', #198, #70, #55, .T. ) ;
#9 = DIRECTION ( 'NONE',  ( 0.000000000000000000, 0.000000000000000000, 1.000000000000000000 ) ) ;
#10 = CC_DESIGN_APPROVAL ( #56, ( #80 ) ) ;
#11 = FACE_OUTER_BOUND ( 'NONE', #154, .T. ) ;
#12 = DIRECTION ( 'NONE',  ( -0.000000000000000000, -0.000000000000000000, -1.000000000000000000 ) ) ;
#13 = ORIENTED_EDGE ( 'NONE', *, *, #8, .F. ) ;
#14 = DIRECTION ( 'NONE',  ( 0.000000000000000000, 0.000000000000000000, 1.000000000000000000 ) ) ;
#15 =( LENGTH_UNIT ( ) NAMED_UNIT ( * ) SI_UNIT ( .MILLI., .METRE. ) );
#16 = CC_DESIGN_PERSON_AND_ORGANIZATION_ASSIGNMENT ( #103, #67, ( #176 ) ) ;
#17 = DIRECTION ( 'NONE',  ( 1.000000000000000000, 0.000000000000000000, 0.000000000000000000 ) ) ;
#18 = DIRECTION ( 'NONE',  ( -1.000000000000000000, 0.000000000000000000, 0.000000000000000000 ) ) ;
#19 = DIRECTION ( 'NONE',  ( 1.000000000000000000, 0.000000000000000000, 0.000000000000000000 ) ) ;
#20 = SECURITY_CLASSIFICATION_LEVEL ( 'unclassified' ) ;
#21 = ORIENTED_EDGE ( 'NONE', *, *, #150, .F. ) ;
#22 = APPROVAL_STATUS ( 'not_yet_approved' ) ;
#23 = CALENDAR_DATE ( 2021, 25, 2 ) ;
#24 = AXIS2_PLACEMENT_3D ( 'NONE', #158, #81, #17 ) ;
#25 = ORIENTED_EDGE ( 'NONE', *, *, #76, .F. ) ;
#26 = ORIENTED_EDGE ( 'NONE', *, *, #172, .F. ) ;
#27 = DIRECTION ( 'NONE',  ( 1.000000000000000000, 0.000000000000000000, 0.000000000000000000 ) ) ;
#28 = DIRECTION ( 'NONE',  ( 0.000000000000000000, 1.000000000000000000, -0.000000000000000000 ) ) ;
#29 = CIRCLE ( 'NONE', #24, 12.69999999999999929 ) ;
#30 = COORDINATED_UNIVERSAL_TIME_OFFSET ( 2, 0, .AHEAD. ) ;
#31 = DATE_TIME_ROLE ( 'classification_date' ) ;
#32 = CC_DESIGN_SECURITY_CLASSIFICATION ( #162, ( #80 ) ) ;
#33 = EDGE_CURVE ( 'NONE', #186, #70, #69, .T. ) ;
#34 = CIRCLE ( 'NONE', #182, 50.00000000000001421 ) ;
#35 = ORIENTED_EDGE ( 'NONE', *, *, #141, .T. ) ;
#36 = VECTOR ( 'NONE', #151, 1000.000000000000000 ) ;
#37 = CARTESIAN_POINT ( 'NONE',  ( 0.000000000000000000, 0.000000000000000000, 0.000000000000000000 ) ) ;
#38 = ORIENTED_EDGE ( 'NONE', *, *, #134, .T. ) ;
#39 = DIRECTION ( 'NONE',  ( -1.000000000000000000, 0.000000000000000000, 0.000000000000000000 ) ) ;
#40 = CC_DESIGN_DATE_AND_TIME_ASSIGNMENT ( #4, #31, ( #162 ) ) ;
#41 = MECHANICAL_CONTEXT ( 'NONE', #184, 'mechanical' ) ;
#42 = CARTESIAN_POINT ( 'NONE',  ( 0.000000000000000000, 0.000000000000000000, 0.000000000000000000 ) ) ;
#43 = DESIGN_CONTEXT ( 'detailed design', #193, 'design' ) ;
#44 = PERSON_AND_ORGANIZATION_ROLE ( 'design_owner' ) ;
#45 = PERSON_AND_ORGANIZATION ( #78, #66 ) ;
#46 = CC_DESIGN_PERSON_AND_ORGANIZATION_ASSIGNMENT ( #96, #44, ( #127 ) ) ;
#47 = DATE_AND_TIME ( #147, #173 ) ;
#48 = LOCAL_TIME ( 13, 28, 19.00000000000000000, #185 ) ;
#49 = CC_DESIGN_PERSON_AND_ORGANIZATION_ASSIGNMENT ( #165, #130, ( #80 ) ) ;
#50 = EDGE_LOOP ( 'NONE', ( #13, #92, #107, #190 ) ) ;
#51 = CARTESIAN_POINT ( 'NONE',  ( -12.69999999999999929, 0.000000000000000000, 6.000000000000000000 ) ) ;
#52 = LINE ( 'NONE', #51, #148 ) ;
#53 = CARTESIAN_POINT ( 'NONE',  ( 0.000000000000000000, 0.000000000000000000, 6.000000000000000000 ) ) ;
#54 = AXIS2_PLACEMENT_3D ( 'NONE', #82, #181, #27 ) ;
#55 = LINE ( 'NONE', #122, #36 ) ;
#56 = APPROVAL ( #65, 'UNSPECIFIED' ) ;
#57 = CLOSED_SHELL ( 'NONE', ( #63, #91, #191, #168, #113 ) ) ;
#58 =( NAMED_UNIT ( * ) PLANE_ANGLE_UNIT ( ) SI_UNIT ( $, .RADIAN. ) );
#59 = UNCERTAINTY_MEASURE_WITH_UNIT (LENGTH_MEASURE( 1.000000000000000082E-05 ), #15, 'distance_accuracy_value', 'NONE');
#60 = CARTESIAN_POINT ( 'NONE',  ( 6.938893903907228378E-15, 0.000000000000000000, 5.999999999999998224 ) ) ;
#61 = DIRECTION ( 'NONE',  ( -0.000000000000000000, -0.000000000000000000, -1.000000000000000000 ) ) ;
#62 = DATE_AND_TIME ( #89, #48 ) ;
#63 = ADVANCED_FACE ( 'NONE', ( #11 ), #71, .F. ) ;
#64 = PERSON_AND_ORGANIZATION ( #78, #66 ) ;
#65 = APPROVAL_STATUS ( 'not_yet_approved' ) ;
#66 = ORGANIZATION ( 'UNSPECIFIED', 'UNSPECIFIED', '' ) ;
#67 = PERSON_AND_ORGANIZATION_ROLE ( 'creator' ) ;
#68 = APPROVAL_ROLE ( '' ) ;
#69 = CIRCLE ( 'NONE', #102, 12.69999999999999929 ) ;
#70 = VERTEX_POINT ( 'NONE', #72 ) ;
#71 = SPHERICAL_SURFACE ( 'NONE', #98, 50.00000000000000711 ) ;
#72 = CARTESIAN_POINT ( 'NONE',  ( 12.69999999999999929, 1.555301434917138433E-15, 0.000000000000000000 ) ) ;
#73 = FACE_OUTER_BOUND ( 'NONE', #90, .T. ) ;
#74 = ORIENTED_EDGE ( 'NONE', *, *, #117, .F. ) ;
#75 = AXIS2_PLACEMENT_3D ( 'NONE', #53, #121, #18 ) ;
#76 = EDGE_CURVE ( 'NONE', #108, #186, #52, .T. ) ;
#77 = DIRECTION ( 'NONE',  ( 1.000000000000000000, 0.000000000000000000, -0.000000000000000000 ) ) ;
#78 = PERSON ( 'UNSPECIFIED', 'UNSPECIFIED', 'UNSPECIFIED', ('UNSPECIFIED'), ('UNSPECIFIED'), ('UNSPECIFIED') ) ;
#79 = DIRECTION ( 'NONE',  ( 1.000000000000000000, 0.000000000000000000, 0.000000000000000000 ) ) ;
#80 = PRODUCT_DEFINITION_FORMATION_WITH_SPECIFIED_SOURCE ( 'ANY', '', #127, .NOT_KNOWN. ) ;
#81 = DIRECTION ( 'NONE',  ( 0.000000000000000000, 0.000000000000000000, 1.000000000000000000 ) ) ;
#82 = CARTESIAN_POINT ( 'NONE',  ( 6.938893903907228378E-15, 0.000000000000000000, 5.999999999999998224 ) ) ;
#83 = PERSON_AND_ORGANIZATION ( #78, #66 ) ;
#84 = CC_DESIGN_PERSON_AND_ORGANIZATION_ASSIGNMENT ( #167, #145, ( #162 ) ) ;
#85 = APPROVAL_ROLE ( '' ) ;
#86 = ORIENTED_EDGE ( 'NONE', *, *, #8, .T. ) ;
#87 = DATE_AND_TIME ( #23, #125 ) ;
#88 = CIRCLE ( 'NONE', #170, 50.00000000000000711 ) ;
#89 = CALENDAR_DATE ( 2021, 25, 2 ) ;
#90 = EDGE_LOOP ( 'NONE', ( #35, #86, #175, #25 ) ) ;
#91 = ADVANCED_FACE ( 'NONE', ( #73 ), #199, .T. ) ;
#92 = ORIENTED_EDGE ( 'NONE', *, *, #117, .T. ) ;
#93 = CARTESIAN_POINT ( 'NONE',  ( -12.70000000000003482, 0.000000000000000000, 5.999999999999998224 ) ) ;
#94 = APPLICATION_PROTOCOL_DEFINITION ( 'international standard', 'config_control_design', 1994, #184 ) ;
#95 = MANIFOLD_SOLID_BREP ( 'Cut-Revolve1', #57 ) ;
#96 = PERSON_AND_ORGANIZATION ( #78, #66 ) ;
#97 = FACE_OUTER_BOUND ( 'NONE', #138, .T. ) ;
#98 = AXIS2_PLACEMENT_3D ( 'NONE', #188, #136, #137 ) ;
#99 = APPROVAL_PERSON_ORGANIZATION ( #114, #101, #85 ) ;
#100 = PRODUCT_DEFINITION_SHAPE ( 'NONE', 'NONE',  #176 ) ;
#101 = APPROVAL ( #22, 'UNSPECIFIED' ) ;
#102 = AXIS2_PLACEMENT_3D ( 'NONE', #37, #9, #153 ) ;
#103 = PERSON_AND_ORGANIZATION ( #78, #66 ) ;
#104 = APPROVAL_PERSON_ORGANIZATION ( #64, #187, #68 ) ;
#105 = APPROVAL_DATE_TIME ( #62, #101 ) ;
#106 = AXIS2_PLACEMENT_3D ( 'NONE', #163, #177, #19 ) ;
#107 = ORIENTED_EDGE ( 'NONE', *, *, #76, .T. ) ;
#108 = VERTEX_POINT ( 'NONE', #93 ) ;
#109 = PRODUCT_RELATED_PRODUCT_CATEGORY ( 'detail', '', ( #127 ) ) ;
#110 = FACE_OUTER_BOUND ( 'NONE', #50, .T. ) ;
#111 = SPHERICAL_SURFACE ( 'NONE', #106, 50.00000000000000711 ) ;
#112 = CIRCLE ( 'NONE', #5, 12.70000000000004015 ) ;
#113 = ADVANCED_FACE ( 'NONE', ( #159 ), #111, .F. ) ;
#114 = PERSON_AND_ORGANIZATION ( #78, #66 ) ;
#115 = APPROVAL_DATE_TIME ( #87, #187 ) ;
#116 = SHAPE_DEFINITION_REPRESENTATION ( #100, #166 ) ;
#117 = EDGE_CURVE ( 'NONE', #198, #108, #155, .T. ) ;
#118 = VERTEX_POINT ( 'NONE', #180 ) ;
#119 = ORIENTED_EDGE ( 'NONE', *, *, #33, .F. ) ;
#120 = AXIS2_PLACEMENT_3D ( 'NONE', #192, #144, #77 ) ;
#121 = DIRECTION ( 'NONE',  ( -0.000000000000000000, -0.000000000000000000, -1.000000000000000000 ) ) ;
#122 = CARTESIAN_POINT ( 'NONE',  ( 12.69999999999999929, 1.555301434917138433E-15, 6.000000000000000000 ) ) ;
#123 = CARTESIAN_POINT ( 'NONE',  ( 6.938893903907228378E-15, 0.000000000000000000, 54.36021091765419300 ) ) ;
#124 = CARTESIAN_POINT ( 'NONE',  ( 0.000000000000000000, 0.000000000000000000, 6.000000000000000000 ) ) ;
#125 = LOCAL_TIME ( 13, 28, 19.00000000000000000, #30 ) ;
#126 = DIRECTION ( 'NONE',  ( -0.000000000000000000, -0.000000000000000000, -1.000000000000000000 ) ) ;
#127 = PRODUCT ( '010-1201E_UVFS_PCV_window', '010-1201E_UVFS_PCV_window', '', ( #41 ) ) ;
#128 = DIRECTION ( 'NONE',  ( 1.000000000000000000, 0.000000000000000000, 0.000000000000000000 ) ) ;
#129 =( GEOMETRIC_REPRESENTATION_CONTEXT ( 3 ) GLOBAL_UNCERTAINTY_ASSIGNED_CONTEXT ( ( #59 ) ) GLOBAL_UNIT_ASSIGNED_CONTEXT ( ( #15, #58, #194 ) ) REPRESENTATION_CONTEXT ( 'NONE', 'WORKASPACE' ) );
#130 = PERSON_AND_ORGANIZATION_ROLE ( 'creator' ) ;
#131 = APPROVAL_ROLE ( '' ) ;
#132 = COORDINATED_UNIVERSAL_TIME_OFFSET ( 2, 0, .AHEAD. ) ;
#133 = DATE_TIME_ROLE ( 'creation_date' ) ;
#134 = EDGE_CURVE ( 'NONE', #198, #118, #34, .T. ) ;
#135 = EDGE_LOOP ( 'NONE', ( #21, #74, #38 ) ) ;
#136 = DIRECTION ( 'NONE',  ( 0.000000000000000000, -1.000000000000000000, -0.000000000000000000 ) ) ;
#137 = DIRECTION ( 'NONE',  ( 1.000000000000000000, 0.000000000000000000, 0.000000000000000000 ) ) ;
#138 = EDGE_LOOP ( 'NONE', ( #119, #26 ) ) ;
#139 = ORIENTED_EDGE ( 'NONE', *, *, #150, .T. ) ;
#140 = CARTESIAN_POINT ( 'NONE',  ( -12.69999999999999929, 0.000000000000000000, 0.000000000000000000 ) ) ;
#141 = EDGE_CURVE ( 'NONE', #108, #198, #112, .T. ) ;
#142 = CC_DESIGN_APPROVAL ( #101, ( #176 ) ) ;
#143 = CC_DESIGN_DATE_AND_TIME_ASSIGNMENT ( #47, #133, ( #176 ) ) ;
#144 = DIRECTION ( 'NONE',  ( 0.000000000000000000, 0.000000000000000000, 1.000000000000000000 ) ) ;
#145 = PERSON_AND_ORGANIZATION_ROLE ( 'classification_officer' ) ;
#146 = CALENDAR_DATE ( 2021, 25, 2 ) ;
#147 = CALENDAR_DATE ( 2021, 25, 2 ) ;
#148 = VECTOR ( 'NONE', #12, 1000.000000000000000 ) ;
#149 = CALENDAR_DATE ( 2021, 25, 2 ) ;
#150 = EDGE_CURVE ( 'NONE', #108, #118, #88, .T. ) ;
#151 = DIRECTION ( 'NONE',  ( -0.000000000000000000, -0.000000000000000000, -1.000000000000000000 ) ) ;
#152 = CC_DESIGN_APPROVAL ( #187, ( #162 ) ) ;
#153 = DIRECTION ( 'NONE',  ( 1.000000000000000000, 0.000000000000000000, 0.000000000000000000 ) ) ;
#154 = EDGE_LOOP ( 'NONE', ( #174, #139, #171 ) ) ;
#155 = CIRCLE ( 'NONE', #54, 12.70000000000004015 ) ;
#156 = CARTESIAN_POINT ( 'NONE',  ( 6.938893903907228378E-15, 0.000000000000000000, 54.36021091765419300 ) ) ;
#157 = CC_DESIGN_PERSON_AND_ORGANIZATION_ASSIGNMENT ( #83, #164, ( #80 ) ) ;
#158 = CARTESIAN_POINT ( 'NONE',  ( 0.000000000000000000, 0.000000000000000000, 0.000000000000000000 ) ) ;
#159 = FACE_OUTER_BOUND ( 'NONE', #135, .T. ) ;
#160 = PLANE ( 'NONE',  #120 ) ;
#161 = AXIS2_PLACEMENT_3D ( 'NONE', #42, #179, #128 ) ;
#162 = SECURITY_CLASSIFICATION ( '', '', #20 ) ;
#163 = CARTESIAN_POINT ( 'NONE',  ( 6.938893903907228378E-15, 0.000000000000000000, 54.36021091765419300 ) ) ;
#164 = PERSON_AND_ORGANIZATION_ROLE ( 'design_supplier' ) ;
#165 = PERSON_AND_ORGANIZATION ( #78, #66 ) ;
#166 = ADVANCED_BREP_SHAPE_REPRESENTATION ( '010-1201E_UVFS_PCV_window', ( #95, #161 ), #129 ) ;
#167 = PERSON_AND_ORGANIZATION ( #78, #66 ) ;
#168 = ADVANCED_FACE ( 'NONE', ( #97 ), #160, .F. ) ;
#169 = COORDINATED_UNIVERSAL_TIME_OFFSET ( 2, 0, .AHEAD. ) ;
#170 = AXIS2_PLACEMENT_3D ( 'NONE', #123, #178, #201 ) ;
#171 = ORIENTED_EDGE ( 'NONE', *, *, #134, .F. ) ;
#172 = EDGE_CURVE ( 'NONE', #70, #186, #29, .T. ) ;
#173 = LOCAL_TIME ( 13, 28, 19.00000000000000000, #132 ) ;
#174 = ORIENTED_EDGE ( 'NONE', *, *, #141, .F. ) ;
#175 = ORIENTED_EDGE ( 'NONE', *, *, #172, .T. ) ;
#176 = PRODUCT_DEFINITION ( 'UNKNOWN', '', #80, #43 ) ;
#177 = DIRECTION ( 'NONE',  ( 0.000000000000000000, -1.000000000000000000, -0.000000000000000000 ) ) ;
#178 = DIRECTION ( 'NONE',  ( 1.224646799147353207E-16, -1.000000000000000000, 0.000000000000000000 ) ) ;
#179 = DIRECTION ( 'NONE',  ( 0.000000000000000000, 0.000000000000000000, 1.000000000000000000 ) ) ;
#180 = CARTESIAN_POINT ( 'NONE',  ( 1.000051090177561181E-14, 0.000000000000000000, 4.360210917654185003 ) ) ;
#181 = DIRECTION ( 'NONE',  ( -0.000000000000000000, -0.000000000000000000, -1.000000000000000000 ) ) ;
#182 = AXIS2_PLACEMENT_3D ( 'NONE', #156, #28, #14 ) ;
#183 = APPROVAL_DATE_TIME ( #3, #56 ) ;
#184 = APPLICATION_CONTEXT ( 'configuration controlled 3d designs of mechanical parts and assemblies' ) ;
#185 = COORDINATED_UNIVERSAL_TIME_OFFSET ( 2, 0, .AHEAD. ) ;
#186 = VERTEX_POINT ( 'NONE', #140 ) ;
#187 = APPROVAL ( #7, 'UNSPECIFIED' ) ;
#188 = CARTESIAN_POINT ( 'NONE',  ( 6.938893903907228378E-15, 0.000000000000000000, 54.36021091765419300 ) ) ;
#189 = LOCAL_TIME ( 13, 28, 19.00000000000000000, #197 ) ;
#190 = ORIENTED_EDGE ( 'NONE', *, *, #33, .T. ) ;
#191 = ADVANCED_FACE ( 'NONE', ( #110 ), #200, .T. ) ;
#192 = CARTESIAN_POINT ( 'NONE',  ( 0.000000000000000000, 0.000000000000000000, 0.000000000000000000 ) ) ;
#193 = APPLICATION_CONTEXT ( 'configuration controlled 3d designs of mechanical parts and assemblies' ) ;
#194 =( NAMED_UNIT ( * ) SI_UNIT ( $, .STERADIAN. ) SOLID_ANGLE_UNIT ( ) );
#195 = APPLICATION_PROTOCOL_DEFINITION ( 'international standard', 'config_control_design', 1994, #193 ) ;
#196 = AXIS2_PLACEMENT_3D ( 'NONE', #124, #126, #39 ) ;
#197 = COORDINATED_UNIVERSAL_TIME_OFFSET ( 2, 0, .AHEAD. ) ;
#198 = VERTEX_POINT ( 'NONE', #2 ) ;
#199 = CYLINDRICAL_SURFACE ( 'NONE', #75, 12.69999999999999929 ) ;
#200 = CYLINDRICAL_SURFACE ( 'NONE', #196, 12.69999999999999929 ) ;
#201 = DIRECTION ( 'NONE',  ( 1.000000000000000000, 1.224646799147353207E-16, 0.000000000000000000 ) ) ;
ENDSEC;
END-ISO-10303-21;
