ISO-10303-21;
HEADER;
FILE_DESCRIPTION (( 'STEP AP203' ),
    '1' );
FILE_NAME ('010-1150T6_UVFS_PCV_window.STEP',
    '2021-02-25T10:40:45',
    ( '' ),
    ( '' ),
    'SwSTEP 2.0',
    'SolidWorks 2019',
    '' );
FILE_SCHEMA (( 'CONFIG_CONTROL_DESIGN' ));
ENDSEC;

DATA;
#1 = ADVANCED_BREP_SHAPE_REPRESENTATION ( '010-1150T6_UVFS_PCV_window', ( #71, #89 ), #97 ) ;
#2 = LINE ( 'NONE', #198, #86 ) ;
#3 = DATE_AND_TIME ( #39, #172 ) ;
#4 = PRODUCT ( '010-1150T6_UVFS_PCV_window', '010-1150T6_UVFS_PCV_window', '', ( #54 ) ) ;
#5 = PERSON_AND_ORGANIZATION_ROLE ( 'creator' ) ;
#6 = ORGANIZATION ( 'UNSPECIFIED', 'UNSPECIFIED', '' ) ;
#7 = DATE_AND_TIME ( #132, #12 ) ;
#8 = APPROVAL_DATE_TIME ( #144, #46 ) ;
#9 = ADVANCED_FACE ( 'NONE', ( #189 ), #173, .F. ) ;
#10 = CALENDAR_DATE ( 2021, 25, 2 ) ;
#11 = APPROVAL ( #53, 'UNSPECIFIED' ) ;
#12 = LOCAL_TIME ( 12, 40, 45.00000000000000000, #168 ) ;
#13 = ORIENTED_EDGE ( 'NONE', *, *, #23, .T. ) ;
#14 = ORIENTED_EDGE ( 'NONE', *, *, #102, .F. ) ;
#15 = VERTEX_POINT ( 'NONE', #98 ) ;
#16 = DIRECTION ( 'NONE',  ( -1.000000000000000000, 0.000000000000000000, 0.000000000000000000 ) ) ;
#17 = DIRECTION ( 'NONE',  ( 0.000000000000000000, 0.000000000000000000, 1.000000000000000000 ) ) ;
#18 = DIRECTION ( 'NONE',  ( 1.000000000000000000, 0.000000000000000000, 0.000000000000000000 ) ) ;
#19 = CIRCLE ( 'NONE', #138, 6.349999999999999645 ) ;
#20 = CARTESIAN_POINT ( 'NONE',  ( 0.000000000000000000, 0.000000000000000000, 6.000000000000000000 ) ) ;
#21 = SHAPE_DEFINITION_REPRESENTATION ( #169, #1 ) ;
#22 = CARTESIAN_POINT ( 'NONE',  ( 0.000000000000000000, 0.000000000000000000, 0.000000000000000000 ) ) ;
#23 = EDGE_CURVE ( 'NONE', #43, #15, #128, .T. ) ;
#24 = PERSON_AND_ORGANIZATION ( #116, #6 ) ;
#25 = CC_DESIGN_PERSON_AND_ORGANIZATION_ASSIGNMENT ( #143, #133, ( #194 ) ) ;
#26 = APPLICATION_CONTEXT ( 'configuration controlled 3d designs of mechanical parts and assemblies' ) ;
#27 = EDGE_LOOP ( 'NONE', ( #148, #105, #92 ) ) ;
#28 = AXIS2_PLACEMENT_3D ( 'NONE', #29, #187, #32 ) ;
#29 = CARTESIAN_POINT ( 'NONE',  ( 0.000000000000000000, 0.000000000000000000, 6.000000000000000000 ) ) ;
#30 = UNCERTAINTY_MEASURE_WITH_UNIT (LENGTH_MEASURE( 1.000000000000000082E-05 ), #165, 'distance_accuracy_value', 'NONE');
#31 = EDGE_CURVE ( 'NONE', #15, #159, #201, .T. ) ;
#32 = DIRECTION ( 'NONE',  ( -1.000000000000000000, 0.000000000000000000, 0.000000000000000000 ) ) ;
#33 = CARTESIAN_POINT ( 'NONE',  ( 6.140921104957897114E-13, 0.000000000000000000, 5005.995967748373914 ) ) ;
#34 = CARTESIAN_POINT ( 'NONE',  ( 6.140921104957897114E-13, 0.000000000000000000, 6.000000000000227374 ) ) ;
#35 = LOCAL_TIME ( 12, 40, 45.00000000000000000, #117 ) ;
#36 = FACE_OUTER_BOUND ( 'NONE', #27, .T. ) ;
#37 = EDGE_CURVE ( 'NONE', #159, #90, #156, .T. ) ;
#38 = PERSON_AND_ORGANIZATION ( #116, #6 ) ;
#39 = CALENDAR_DATE ( 2021, 25, 2 ) ;
#40 = PERSON_AND_ORGANIZATION_ROLE ( 'design_supplier' ) ;
#41 = APPROVAL_ROLE ( '' ) ;
#42 = ORIENTED_EDGE ( 'NONE', *, *, #37, .F. ) ;
#43 = VERTEX_POINT ( 'NONE', #141 ) ;
#44 = DIRECTION ( 'NONE',  ( 1.224646799147353207E-16, -1.000000000000000000, 0.000000000000000000 ) ) ;
#45 = CIRCLE ( 'NONE', #186, 5000.000000000000000 ) ;
#46 = APPROVAL ( #146, 'UNSPECIFIED' ) ;
#47 = DIRECTION ( 'NONE',  ( 1.000000000000000000, 0.000000000000000000, -0.000000000000000000 ) ) ;
#48 = DIRECTION ( 'NONE',  ( 0.000000000000000000, -1.000000000000000000, -0.000000000000000000 ) ) ;
#49 = CARTESIAN_POINT ( 'NONE',  ( 6.349999999999999645, 7.776507174585692163E-16, 0.000000000000000000 ) ) ;
#50 = APPROVAL_PERSON_ORGANIZATION ( #155, #61, #87 ) ;
#51 = APPROVAL_DATE_TIME ( #3, #11 ) ;
#52 = CALENDAR_DATE ( 2021, 25, 2 ) ;
#53 = APPROVAL_STATUS ( 'not_yet_approved' ) ;
#54 = MECHANICAL_CONTEXT ( 'NONE', #93, 'mechanical' ) ;
#55 = PERSON_AND_ORGANIZATION_ROLE ( 'design_owner' ) ;
#56 = CLOSED_SHELL ( 'NONE', ( #94, #130, #161, #78, #9 ) ) ;
#57 = APPROVAL_ROLE ( '' ) ;
#58 = ORIENTED_EDGE ( 'NONE', *, *, #67, .F. ) ;
#59 = PRODUCT_DEFINITION ( 'UNKNOWN', '', #194, #120 ) ;
#60 = CARTESIAN_POINT ( 'NONE',  ( 6.140921104957897114E-13, 0.000000000000000000, 5005.995967748373914 ) ) ;
#61 = APPROVAL ( #176, 'UNSPECIFIED' ) ;
#62 = CARTESIAN_POINT ( 'NONE',  ( 9.202538102826278847E-13, 0.000000000000000000, 5.995967748374297912 ) ) ;
#63 = VECTOR ( 'NONE', #185, 1000.000000000000000 ) ;
#64 = DIRECTION ( 'NONE',  ( -0.000000000000000000, -0.000000000000000000, -1.000000000000000000 ) ) ;
#65 = DIRECTION ( 'NONE',  ( 1.000000000000000000, 0.000000000000000000, 0.000000000000000000 ) ) ;
#66 = PRODUCT_RELATED_PRODUCT_CATEGORY ( 'detail', '', ( #4 ) ) ;
#67 = EDGE_CURVE ( 'NONE', #90, #159, #19, .T. ) ;
#68 = CARTESIAN_POINT ( 'NONE',  ( 0.000000000000000000, 0.000000000000000000, 0.000000000000000000 ) ) ;
#69 = SECURITY_CLASSIFICATION ( '', '', #192 ) ;
#70 = ORIENTED_EDGE ( 'NONE', *, *, #23, .F. ) ;
#71 = MANIFOLD_SOLID_BREP ( 'Cut-Revolve1', #56 ) ;
#72 = ORIENTED_EDGE ( 'NONE', *, *, #102, .T. ) ;
#73 = CIRCLE ( 'NONE', #80, 6.349999999883787716 ) ;
#74 = CC_DESIGN_PERSON_AND_ORGANIZATION_ASSIGNMENT ( #131, #40, ( #194 ) ) ;
#75 = DIRECTION ( 'NONE',  ( 0.000000000000000000, 0.000000000000000000, 1.000000000000000000 ) ) ;
#76 = AXIS2_PLACEMENT_3D ( 'NONE', #122, #48, #126 ) ;
#77 = CC_DESIGN_APPROVAL ( #46, ( #59 ) ) ;
#78 = ADVANCED_FACE ( 'NONE', ( #121 ), #99, .F. ) ;
#79 = DIRECTION ( 'NONE',  ( -0.000000000000000000, -0.000000000000000000, -1.000000000000000000 ) ) ;
#80 = AXIS2_PLACEMENT_3D ( 'NONE', #34, #79, #18 ) ;
#81 = CYLINDRICAL_SURFACE ( 'NONE', #28, 6.349999999999999645 ) ;
#82 = CARTESIAN_POINT ( 'NONE',  ( 6.140921104957897114E-13, 0.000000000000000000, 6.000000000000227374 ) ) ;
#83 = PERSON_AND_ORGANIZATION ( #116, #6 ) ;
#84 = FACE_OUTER_BOUND ( 'NONE', #196, .T. ) ;
#85 = APPROVAL_DATE_TIME ( #125, #61 ) ;
#86 = VECTOR ( 'NONE', #64, 1000.000000000000000 ) ;
#87 = APPROVAL_ROLE ( '' ) ;
#88 = APPLICATION_PROTOCOL_DEFINITION ( 'international standard', 'config_control_design', 1994, #26 ) ;
#89 = AXIS2_PLACEMENT_3D ( 'NONE', #68, #157, #177 ) ;
#90 = VERTEX_POINT ( 'NONE', #49 ) ;
#91 = EDGE_LOOP ( 'NONE', ( #162, #72, #179, #150 ) ) ;
#92 = ORIENTED_EDGE ( 'NONE', *, *, #171, .F. ) ;
#93 = APPLICATION_CONTEXT ( 'configuration controlled 3d designs of mechanical parts and assemblies' ) ;
#94 = ADVANCED_FACE ( 'NONE', ( #36 ), #108, .F. ) ;
#95 = DIRECTION ( 'NONE',  ( 1.000000000000000000, 1.224646799147353207E-16, 0.000000000000000000 ) ) ;
#96 = DIRECTION ( 'NONE',  ( 1.000000000000000000, 0.000000000000000000, 0.000000000000000000 ) ) ;
#97 =( GEOMETRIC_REPRESENTATION_CONTEXT ( 3 ) GLOBAL_UNCERTAINTY_ASSIGNED_CONTEXT ( ( #30 ) ) GLOBAL_UNIT_ASSIGNED_CONTEXT ( ( #165, #139, #100 ) ) REPRESENTATION_CONTEXT ( 'NONE', 'WORKASPACE' ) );
#98 = CARTESIAN_POINT ( 'NONE',  ( -6.349999999883173984, 0.000000000000000000, 6.000000000000227374 ) ) ;
#99 = PLANE ( 'NONE',  #134 ) ;
#100 =( NAMED_UNIT ( * ) SI_UNIT ( $, .STERADIAN. ) SOLID_ANGLE_UNIT ( ) );
#101 = CC_DESIGN_DATE_AND_TIME_ASSIGNMENT ( #7, #174, ( #69 ) ) ;
#102 = EDGE_CURVE ( 'NONE', #43, #90, #2, .T. ) ;
#103 = CC_DESIGN_APPROVAL ( #11, ( #69 ) ) ;
#104 = VERTEX_POINT ( 'NONE', #62 ) ;
#105 = ORIENTED_EDGE ( 'NONE', *, *, #180, .T. ) ;
#106 = EDGE_LOOP ( 'NONE', ( #195, #70, #135 ) ) ;
#107 = APPROVAL_PERSON_ORGANIZATION ( #193, #46, #41 ) ;
#108 = SPHERICAL_SURFACE ( 'NONE', #200, 5000.000000000000000 ) ;
#109 = LOCAL_TIME ( 12, 40, 45.00000000000000000, #129 ) ;
#110 = DIRECTION ( 'NONE',  ( 0.000000000000000000, 0.000000000000000000, 1.000000000000000000 ) ) ;
#111 = CARTESIAN_POINT ( 'NONE',  ( 0.000000000000000000, 0.000000000000000000, 0.000000000000000000 ) ) ;
#112 = DIRECTION ( 'NONE',  ( -0.000000000000000000, -0.000000000000000000, -1.000000000000000000 ) ) ;
#113 = DATE_AND_TIME ( #52, #109 ) ;
#114 = COORDINATED_UNIVERSAL_TIME_OFFSET ( 2, 0, .AHEAD. ) ;
#115 = APPLICATION_PROTOCOL_DEFINITION ( 'international standard', 'config_control_design', 1994, #93 ) ;
#116 = PERSON ( 'UNSPECIFIED', 'UNSPECIFIED', 'UNSPECIFIED', ('UNSPECIFIED'), ('UNSPECIFIED'), ('UNSPECIFIED') ) ;
#117 = COORDINATED_UNIVERSAL_TIME_OFFSET ( 2, 0, .AHEAD. ) ;
#118 = AXIS2_PLACEMENT_3D ( 'NONE', #183, #142, #75 ) ;
#119 = CIRCLE ( 'NONE', #118, 5000.000000000000000 ) ;
#120 = DESIGN_CONTEXT ( 'detailed design', #26, 'design' ) ;
#121 = FACE_OUTER_BOUND ( 'NONE', #182, .T. ) ;
#122 = CARTESIAN_POINT ( 'NONE',  ( 6.140921104957897114E-13, 0.000000000000000000, 5005.995967748373914 ) ) ;
#123 = FACE_OUTER_BOUND ( 'NONE', #91, .T. ) ;
#124 = CARTESIAN_POINT ( 'NONE',  ( 0.000000000000000000, 0.000000000000000000, 0.000000000000000000 ) ) ;
#125 = DATE_AND_TIME ( #10, #184 ) ;
#126 = DIRECTION ( 'NONE',  ( 1.000000000000000000, 0.000000000000000000, 0.000000000000000000 ) ) ;
#127 = PERSON_AND_ORGANIZATION_ROLE ( 'classification_officer' ) ;
#128 = CIRCLE ( 'NONE', #191, 6.349999999883787716 ) ;
#129 = COORDINATED_UNIVERSAL_TIME_OFFSET ( 2, 0, .AHEAD. ) ;
#130 = ADVANCED_FACE ( 'NONE', ( #123 ), #166, .T. ) ;
#131 = PERSON_AND_ORGANIZATION ( #116, #6 ) ;
#132 = CALENDAR_DATE ( 2021, 25, 2 ) ;
#133 = PERSON_AND_ORGANIZATION_ROLE ( 'creator' ) ;
#134 = AXIS2_PLACEMENT_3D ( 'NONE', #22, #167, #47 ) ;
#135 = ORIENTED_EDGE ( 'NONE', *, *, #171, .T. ) ;
#136 = DIRECTION ( 'NONE',  ( 1.000000000000000000, 0.000000000000000000, 0.000000000000000000 ) ) ;
#137 = CC_DESIGN_PERSON_AND_ORGANIZATION_ASSIGNMENT ( #38, #5, ( #59 ) ) ;
#138 = AXIS2_PLACEMENT_3D ( 'NONE', #111, #110, #152 ) ;
#139 =( NAMED_UNIT ( * ) PLANE_ANGLE_UNIT ( ) SI_UNIT ( $, .RADIAN. ) );
#140 = AXIS2_PLACEMENT_3D ( 'NONE', #124, #17, #96 ) ;
#141 = CARTESIAN_POINT ( 'NONE',  ( 6.349999999884402335, 7.776507174514910632E-16, 6.000000000000227374 ) ) ;
#142 = DIRECTION ( 'NONE',  ( 0.000000000000000000, 1.000000000000000000, -0.000000000000000000 ) ) ;
#143 = PERSON_AND_ORGANIZATION ( #116, #6 ) ;
#144 = DATE_AND_TIME ( #178, #35 ) ;
#145 = COORDINATED_UNIVERSAL_TIME_OFFSET ( 2, 0, .AHEAD. ) ;
#146 = APPROVAL_STATUS ( 'not_yet_approved' ) ;
#147 = APPROVAL_PERSON_ORGANIZATION ( #158, #11, #57 ) ;
#148 = ORIENTED_EDGE ( 'NONE', *, *, #149, .F. ) ;
#149 = EDGE_CURVE ( 'NONE', #15, #43, #73, .T. ) ;
#150 = ORIENTED_EDGE ( 'NONE', *, *, #31, .F. ) ;
#151 = DIRECTION ( 'NONE',  ( -0.000000000000000000, -0.000000000000000000, -1.000000000000000000 ) ) ;
#152 = DIRECTION ( 'NONE',  ( 1.000000000000000000, 0.000000000000000000, 0.000000000000000000 ) ) ;
#153 = CARTESIAN_POINT ( 'NONE',  ( -6.349999999999999645, 0.000000000000000000, 6.000000000000000000 ) ) ;
#154 = CARTESIAN_POINT ( 'NONE',  ( -6.349999999999999645, 0.000000000000000000, 0.000000000000000000 ) ) ;
#155 = PERSON_AND_ORGANIZATION ( #116, #6 ) ;
#156 = CIRCLE ( 'NONE', #140, 6.349999999999999645 ) ;
#157 = DIRECTION ( 'NONE',  ( 0.000000000000000000, 0.000000000000000000, 1.000000000000000000 ) ) ;
#158 = PERSON_AND_ORGANIZATION ( #116, #6 ) ;
#159 = VERTEX_POINT ( 'NONE', #154 ) ;
#160 = CC_DESIGN_APPROVAL ( #61, ( #194 ) ) ;
#161 = ADVANCED_FACE ( 'NONE', ( #84 ), #81, .T. ) ;
#162 = ORIENTED_EDGE ( 'NONE', *, *, #149, .T. ) ;
#163 = ORIENTED_EDGE ( 'NONE', *, *, #31, .T. ) ;
#164 = AXIS2_PLACEMENT_3D ( 'NONE', #20, #112, #16 ) ;
#165 =( LENGTH_UNIT ( ) NAMED_UNIT ( * ) SI_UNIT ( .MILLI., .METRE. ) );
#166 = CYLINDRICAL_SURFACE ( 'NONE', #164, 6.349999999999999645 ) ;
#167 = DIRECTION ( 'NONE',  ( 0.000000000000000000, 0.000000000000000000, 1.000000000000000000 ) ) ;
#168 = COORDINATED_UNIVERSAL_TIME_OFFSET ( 2, 0, .AHEAD. ) ;
#169 = PRODUCT_DEFINITION_SHAPE ( 'NONE', 'NONE',  #59 ) ;
#170 = CC_DESIGN_DATE_AND_TIME_ASSIGNMENT ( #113, #175, ( #59 ) ) ;
#171 = EDGE_CURVE ( 'NONE', #43, #104, #119, .T. ) ;
#172 = LOCAL_TIME ( 12, 40, 45.00000000000000000, #114 ) ;
#173 = SPHERICAL_SURFACE ( 'NONE', #76, 5000.000000000000000 ) ;
#174 = DATE_TIME_ROLE ( 'classification_date' ) ;
#175 = DATE_TIME_ROLE ( 'creation_date' ) ;
#176 = APPROVAL_STATUS ( 'not_yet_approved' ) ;
#177 = DIRECTION ( 'NONE',  ( 1.000000000000000000, 0.000000000000000000, 0.000000000000000000 ) ) ;
#178 = CALENDAR_DATE ( 2021, 25, 2 ) ;
#179 = ORIENTED_EDGE ( 'NONE', *, *, #67, .T. ) ;
#180 = EDGE_CURVE ( 'NONE', #15, #104, #45, .T. ) ;
#181 = ORIENTED_EDGE ( 'NONE', *, *, #37, .T. ) ;
#182 = EDGE_LOOP ( 'NONE', ( #42, #58 ) ) ;
#183 = CARTESIAN_POINT ( 'NONE',  ( 6.140921104957897114E-13, 0.000000000000000000, 5005.995967748373914 ) ) ;
#184 = LOCAL_TIME ( 12, 40, 45.00000000000000000, #145 ) ;
#185 = DIRECTION ( 'NONE',  ( -0.000000000000000000, -0.000000000000000000, -1.000000000000000000 ) ) ;
#186 = AXIS2_PLACEMENT_3D ( 'NONE', #60, #44, #95 ) ;
#187 = DIRECTION ( 'NONE',  ( -0.000000000000000000, -0.000000000000000000, -1.000000000000000000 ) ) ;
#188 = CC_DESIGN_PERSON_AND_ORGANIZATION_ASSIGNMENT ( #83, #127, ( #69 ) ) ;
#189 = FACE_OUTER_BOUND ( 'NONE', #106, .T. ) ;
#190 = DIRECTION ( 'NONE',  ( 0.000000000000000000, -1.000000000000000000, -0.000000000000000000 ) ) ;
#191 = AXIS2_PLACEMENT_3D ( 'NONE', #82, #151, #65 ) ;
#192 = SECURITY_CLASSIFICATION_LEVEL ( 'unclassified' ) ;
#193 = PERSON_AND_ORGANIZATION ( #116, #6 ) ;
#194 = PRODUCT_DEFINITION_FORMATION_WITH_SPECIFIED_SOURCE ( 'ANY', '', #4, .NOT_KNOWN. ) ;
#195 = ORIENTED_EDGE ( 'NONE', *, *, #180, .F. ) ;
#196 = EDGE_LOOP ( 'NONE', ( #14, #13, #163, #181 ) ) ;
#197 = CC_DESIGN_SECURITY_CLASSIFICATION ( #69, ( #194 ) ) ;
#198 = CARTESIAN_POINT ( 'NONE',  ( 6.349999999999999645, 7.776507174585692163E-16, 6.000000000000000000 ) ) ;
#199 = CC_DESIGN_PERSON_AND_ORGANIZATION_ASSIGNMENT ( #24, #55, ( #4 ) ) ;
#200 = AXIS2_PLACEMENT_3D ( 'NONE', #33, #190, #136 ) ;
#201 = LINE ( 'NONE', #153, #63 ) ;
ENDSEC;
END-ISO-10303-21;
