ISO-10303-21;
HEADER;
FILE_DESCRIPTION (( 'STEP AP203' ),
    '1' );
FILE_NAME ('010-1150E_UVFS_PCV_window.STEP',
    '2021-02-25T08:37:25',
    ( '' ),
    ( '' ),
    'SwSTEP 2.0',
    'SolidWorks 2019',
    '' );
FILE_SCHEMA (( 'CONFIG_CONTROL_DESIGN' ));
ENDSEC;

DATA;
#1 = ADVANCED_FACE ( 'NONE', ( #90 ), #122, .F. ) ;
#2 = DIRECTION ( 'NONE',  ( 1.000000000000000000, 0.000000000000000000, 0.000000000000000000 ) ) ;
#3 = CC_DESIGN_DATE_AND_TIME_ASSIGNMENT ( #116, #100, ( #32 ) ) ;
#4 = DIRECTION ( 'NONE',  ( 1.000000000000000000, 0.000000000000000000, -0.000000000000000000 ) ) ;
#5 = APPROVAL_DATE_TIME ( #109, #97 ) ;
#6 = CC_DESIGN_APPROVAL ( #139, ( #128 ) ) ;
#7 = PLANE ( 'NONE',  #174 ) ;
#8 = PERSON_AND_ORGANIZATION_ROLE ( 'classification_officer' ) ;
#9 = DIRECTION ( 'NONE',  ( 0.000000000000000000, 0.000000000000000000, 1.000000000000000000 ) ) ;
#10 = AXIS2_PLACEMENT_3D ( 'NONE', #158, #113, #2 ) ;
#11 =( NAMED_UNIT ( * ) SI_UNIT ( $, .STERADIAN. ) SOLID_ANGLE_UNIT ( ) );
#12 = ORIENTED_EDGE ( 'NONE', *, *, #29, .F. ) ;
#13 = CIRCLE ( 'NONE', #127, 6.349999999883787716 ) ;
#14 = DIRECTION ( 'NONE',  ( 1.000000000000000000, 0.000000000000000000, 0.000000000000000000 ) ) ;
#15 = DIRECTION ( 'NONE',  ( -1.000000000000000000, 0.000000000000000000, 0.000000000000000000 ) ) ;
#16 = CARTESIAN_POINT ( 'NONE',  ( 6.140921104957897114E-13, 0.000000000000000000, 5002.995967748373914 ) ) ;
#17 = APPLICATION_CONTEXT ( 'configuration controlled 3d designs of mechanical parts and assemblies' ) ;
#18 = CC_DESIGN_APPROVAL ( #171, ( #42 ) ) ;
#19 = DIRECTION ( 'NONE',  ( 1.000000000000000000, 0.000000000000000000, 0.000000000000000000 ) ) ;
#20 = EDGE_CURVE ( 'NONE', #92, #196, #13, .T. ) ;
#21 = APPROVAL_DATE_TIME ( #145, #171 ) ;
#22 = CC_DESIGN_SECURITY_CLASSIFICATION ( #32, ( #128 ) ) ;
#23 = PERSON ( 'UNSPECIFIED', 'UNSPECIFIED', 'UNSPECIFIED', ('UNSPECIFIED'), ('UNSPECIFIED'), ('UNSPECIFIED') ) ;
#24 = CC_DESIGN_DATE_AND_TIME_ASSIGNMENT ( #81, #47, ( #42 ) ) ;
#25 = CARTESIAN_POINT ( 'NONE',  ( 9.202538102826278847E-13, 0.000000000000000000, 2.995967748374184225 ) ) ;
#26 = CARTESIAN_POINT ( 'NONE',  ( 6.140921104957897114E-13, 0.000000000000000000, 5002.995967748373914 ) ) ;
#27 = ORIENTED_EDGE ( 'NONE', *, *, #93, .T. ) ;
#28 = DIRECTION ( 'NONE',  ( 1.224646799147353207E-16, -1.000000000000000000, 0.000000000000000000 ) ) ;
#29 = EDGE_CURVE ( 'NONE', #41, #46, #37, .T. ) ;
#30 = CIRCLE ( 'NONE', #155, 6.349999999999999645 ) ;
#31 = PERSON_AND_ORGANIZATION_ROLE ( 'design_supplier' ) ;
#32 = SECURITY_CLASSIFICATION ( '', '', #131 ) ;
#33 = CC_DESIGN_PERSON_AND_ORGANIZATION_ASSIGNMENT ( #146, #190, ( #128 ) ) ;
#34 = CALENDAR_DATE ( 2021, 25, 2 ) ;
#35 = ADVANCED_FACE ( 'NONE', ( #153 ), #71, .T. ) ;
#36 = PRODUCT_DEFINITION_SHAPE ( 'NONE', 'NONE',  #42 ) ;
#37 = CIRCLE ( 'NONE', #150, 6.349999999999999645 ) ;
#38 = MECHANICAL_CONTEXT ( 'NONE', #17, 'mechanical' ) ;
#39 = APPROVAL_ROLE ( '' ) ;
#40 = ORIENTED_EDGE ( 'NONE', *, *, #59, .T. ) ;
#41 = VERTEX_POINT ( 'NONE', #201 ) ;
#42 = PRODUCT_DEFINITION ( 'UNKNOWN', '', #128, #157 ) ;
#43 = DIRECTION ( 'NONE',  ( 0.000000000000000000, 0.000000000000000000, 1.000000000000000000 ) ) ;
#44 = ORIENTED_EDGE ( 'NONE', *, *, #87, .F. ) ;
#45 = CARTESIAN_POINT ( 'NONE',  ( -6.349999999999999645, 0.000000000000000000, 3.000000000000000000 ) ) ;
#46 = VERTEX_POINT ( 'NONE', #106 ) ;
#47 = DATE_TIME_ROLE ( 'creation_date' ) ;
#48 = CARTESIAN_POINT ( 'NONE',  ( 0.000000000000000000, 0.000000000000000000, 0.000000000000000000 ) ) ;
#49 = APPROVAL_DATE_TIME ( #175, #139 ) ;
#50 = DIRECTION ( 'NONE',  ( 1.000000000000000000, 0.000000000000000000, 0.000000000000000000 ) ) ;
#51 = ORIENTED_EDGE ( 'NONE', *, *, #82, .T. ) ;
#52 = EDGE_LOOP ( 'NONE', ( #135, #167, #149, #168 ) ) ;
#53 = VERTEX_POINT ( 'NONE', #25 ) ;
#54 = ORIENTED_EDGE ( 'NONE', *, *, #76, .F. ) ;
#55 = CIRCLE ( 'NONE', #111, 5000.000000000000000 ) ;
#56 = CARTESIAN_POINT ( 'NONE',  ( 6.349999999999999645, 7.776507174585692163E-16, 3.000000000000000000 ) ) ;
#57 = DIRECTION ( 'NONE',  ( -0.000000000000000000, -0.000000000000000000, -1.000000000000000000 ) ) ;
#58 = FACE_OUTER_BOUND ( 'NONE', #183, .T. ) ;
#59 = EDGE_CURVE ( 'NONE', #92, #46, #137, .T. ) ;
#60 = APPROVAL_STATUS ( 'not_yet_approved' ) ;
#61 = APPROVAL_ROLE ( '' ) ;
#62 = CARTESIAN_POINT ( 'NONE',  ( 0.000000000000000000, 0.000000000000000000, 0.000000000000000000 ) ) ;
#63 = PERSON_AND_ORGANIZATION ( #23, #166 ) ;
#64 = AXIS2_PLACEMENT_3D ( 'NONE', #16, #28, #140 ) ;
#65 = PRODUCT ( '010-1150E_UVFS_PCV_window', '010-1150E_UVFS_PCV_window', '', ( #38 ) ) ;
#66 = PERSON_AND_ORGANIZATION_ROLE ( 'creator' ) ;
#67 = MANIFOLD_SOLID_BREP ( 'Cut-Revolve1', #103 ) ;
#68 = ORIENTED_EDGE ( 'NONE', *, *, #118, .T. ) ;
#69 = ORIENTED_EDGE ( 'NONE', *, *, #20, .F. ) ;
#70 = EDGE_LOOP ( 'NONE', ( #27, #40, #68, #54 ) ) ;
#71 = CYLINDRICAL_SURFACE ( 'NONE', #85, 6.349999999999999645 ) ;
#72 = CC_DESIGN_APPROVAL ( #97, ( #32 ) ) ;
#73 = CARTESIAN_POINT ( 'NONE',  ( 6.140921104957897114E-13, 0.000000000000000000, 3.000000000000113687 ) ) ;
#74 = CC_DESIGN_PERSON_AND_ORGANIZATION_ASSIGNMENT ( #83, #193, ( #65 ) ) ;
#75 = CARTESIAN_POINT ( 'NONE',  ( 6.349999999884402335, 7.776507174514910632E-16, 3.000000000000113687 ) ) ;
#76 = EDGE_CURVE ( 'NONE', #196, #41, #126, .T. ) ;
#77 =( NAMED_UNIT ( * ) PLANE_ANGLE_UNIT ( ) SI_UNIT ( $, .RADIAN. ) );
#78 = CALENDAR_DATE ( 2021, 25, 2 ) ;
#79 = DIRECTION ( 'NONE',  ( 0.000000000000000000, 0.000000000000000000, 1.000000000000000000 ) ) ;
#80 =( GEOMETRIC_REPRESENTATION_CONTEXT ( 3 ) GLOBAL_UNCERTAINTY_ASSIGNED_CONTEXT ( ( #184 ) ) GLOBAL_UNIT_ASSIGNED_CONTEXT ( ( #130, #77, #11 ) ) REPRESENTATION_CONTEXT ( 'NONE', 'WORKASPACE' ) );
#81 = DATE_AND_TIME ( #34, #91 ) ;
#82 = EDGE_CURVE ( 'NONE', #92, #53, #55, .T. ) ;
#83 = PERSON_AND_ORGANIZATION ( #23, #166 ) ;
#84 = DIRECTION ( 'NONE',  ( 1.000000000000000000, 0.000000000000000000, 0.000000000000000000 ) ) ;
#85 = AXIS2_PLACEMENT_3D ( 'NONE', #199, #57, #15 ) ;
#86 = APPLICATION_PROTOCOL_DEFINITION ( 'international standard', 'config_control_design', 1994, #17 ) ;
#87 = EDGE_CURVE ( 'NONE', #196, #53, #173, .T. ) ;
#88 = ORIENTED_EDGE ( 'NONE', *, *, #82, .F. ) ;
#89 = LOCAL_TIME ( 10, 37, 25.00000000000000000, #177 ) ;
#90 = FACE_OUTER_BOUND ( 'NONE', #105, .T. ) ;
#91 = LOCAL_TIME ( 10, 37, 25.00000000000000000, #134 ) ;
#92 = VERTEX_POINT ( 'NONE', #75 ) ;
#93 = EDGE_CURVE ( 'NONE', #196, #92, #94, .T. ) ;
#94 = CIRCLE ( 'NONE', #10, 6.349999999883787716 ) ;
#95 = APPROVAL_PERSON_ORGANIZATION ( #164, #139, #144 ) ;
#96 = SHAPE_DEFINITION_REPRESENTATION ( #36, #191 ) ;
#97 = APPROVAL ( #179, 'UNSPECIFIED' ) ;
#98 = FACE_OUTER_BOUND ( 'NONE', #200, .T. ) ;
#99 = AXIS2_PLACEMENT_3D ( 'NONE', #26, #129, #14 ) ;
#100 = DATE_TIME_ROLE ( 'classification_date' ) ;
#101 = CC_DESIGN_PERSON_AND_ORGANIZATION_ASSIGNMENT ( #147, #66, ( #42 ) ) ;
#102 = PERSON_AND_ORGANIZATION ( #23, #166 ) ;
#103 = CLOSED_SHELL ( 'NONE', ( #1, #35, #121, #170, #114 ) ) ;
#104 = LOCAL_TIME ( 10, 37, 25.00000000000000000, #133 ) ;
#105 = EDGE_LOOP ( 'NONE', ( #152, #194, #88 ) ) ;
#106 = CARTESIAN_POINT ( 'NONE',  ( 6.349999999999999645, 7.776507174585692163E-16, 0.000000000000000000 ) ) ;
#107 = DIRECTION ( 'NONE',  ( -0.000000000000000000, -0.000000000000000000, -1.000000000000000000 ) ) ;
#108 = CARTESIAN_POINT ( 'NONE',  ( 0.000000000000000000, 0.000000000000000000, 0.000000000000000000 ) ) ;
#109 = DATE_AND_TIME ( #159, #104 ) ;
#110 = CC_DESIGN_PERSON_AND_ORGANIZATION_ASSIGNMENT ( #141, #8, ( #32 ) ) ;
#111 = AXIS2_PLACEMENT_3D ( 'NONE', #156, #161, #160 ) ;
#112 = COORDINATED_UNIVERSAL_TIME_OFFSET ( 2, 0, .AHEAD. ) ;
#113 = DIRECTION ( 'NONE',  ( -0.000000000000000000, -0.000000000000000000, -1.000000000000000000 ) ) ;
#114 = ADVANCED_FACE ( 'NONE', ( #58 ), #189, .F. ) ;
#115 = CARTESIAN_POINT ( 'NONE',  ( 0.000000000000000000, 0.000000000000000000, 0.000000000000000000 ) ) ;
#116 = DATE_AND_TIME ( #162, #89 ) ;
#117 = APPROVAL_STATUS ( 'not_yet_approved' ) ;
#118 = EDGE_CURVE ( 'NONE', #46, #41, #30, .T. ) ;
#119 = ORIENTED_EDGE ( 'NONE', *, *, #118, .F. ) ;
#120 = APPROVAL_PERSON_ORGANIZATION ( #63, #97, #61 ) ;
#121 = ADVANCED_FACE ( 'NONE', ( #188 ), #143, .T. ) ;
#122 = SPHERICAL_SURFACE ( 'NONE', #99, 5000.000000000000000 ) ;
#123 = VECTOR ( 'NONE', #107, 1000.000000000000000 ) ;
#124 = AXIS2_PLACEMENT_3D ( 'NONE', #178, #138, #172 ) ;
#125 = DIRECTION ( 'NONE',  ( -0.000000000000000000, -0.000000000000000000, -1.000000000000000000 ) ) ;
#126 = LINE ( 'NONE', #45, #123 ) ;
#127 = AXIS2_PLACEMENT_3D ( 'NONE', #73, #185, #136 ) ;
#128 = PRODUCT_DEFINITION_FORMATION_WITH_SPECIFIED_SOURCE ( 'ANY', '', #65, .NOT_KNOWN. ) ;
#129 = DIRECTION ( 'NONE',  ( 0.000000000000000000, -1.000000000000000000, -0.000000000000000000 ) ) ;
#130 =( LENGTH_UNIT ( ) NAMED_UNIT ( * ) SI_UNIT ( .MILLI., .METRE. ) );
#131 = SECURITY_CLASSIFICATION_LEVEL ( 'unclassified' ) ;
#132 = DIRECTION ( 'NONE',  ( 0.000000000000000000, 0.000000000000000000, 1.000000000000000000 ) ) ;
#133 = COORDINATED_UNIVERSAL_TIME_OFFSET ( 2, 0, .AHEAD. ) ;
#134 = COORDINATED_UNIVERSAL_TIME_OFFSET ( 2, 0, .AHEAD. ) ;
#135 = ORIENTED_EDGE ( 'NONE', *, *, #59, .F. ) ;
#136 = DIRECTION ( 'NONE',  ( 1.000000000000000000, 0.000000000000000000, 0.000000000000000000 ) ) ;
#137 = LINE ( 'NONE', #56, #197 ) ;
#138 = DIRECTION ( 'NONE',  ( -0.000000000000000000, -0.000000000000000000, -1.000000000000000000 ) ) ;
#139 = APPROVAL ( #60, 'UNSPECIFIED' ) ;
#140 = DIRECTION ( 'NONE',  ( 1.000000000000000000, 1.224646799147353207E-16, 0.000000000000000000 ) ) ;
#141 = PERSON_AND_ORGANIZATION ( #23, #166 ) ;
#142 = CARTESIAN_POINT ( 'NONE',  ( 6.140921104957897114E-13, 0.000000000000000000, 5002.995967748373914 ) ) ;
#143 = CYLINDRICAL_SURFACE ( 'NONE', #124, 6.349999999999999645 ) ;
#144 = APPROVAL_ROLE ( '' ) ;
#145 = DATE_AND_TIME ( #165, #151 ) ;
#146 = PERSON_AND_ORGANIZATION ( #23, #166 ) ;
#147 = PERSON_AND_ORGANIZATION ( #23, #166 ) ;
#148 = AXIS2_PLACEMENT_3D ( 'NONE', #142, #163, #50 ) ;
#149 = ORIENTED_EDGE ( 'NONE', *, *, #76, .T. ) ;
#150 = AXIS2_PLACEMENT_3D ( 'NONE', #108, #43, #187 ) ;
#151 = LOCAL_TIME ( 10, 37, 25.00000000000000000, #181 ) ;
#152 = ORIENTED_EDGE ( 'NONE', *, *, #93, .F. ) ;
#153 = FACE_OUTER_BOUND ( 'NONE', #70, .T. ) ;
#154 = PRODUCT_RELATED_PRODUCT_CATEGORY ( 'detail', '', ( #65 ) ) ;
#155 = AXIS2_PLACEMENT_3D ( 'NONE', #115, #132, #19 ) ;
#156 = CARTESIAN_POINT ( 'NONE',  ( 6.140921104957897114E-13, 0.000000000000000000, 5002.995967748373914 ) ) ;
#157 = DESIGN_CONTEXT ( 'detailed design', #195, 'design' ) ;
#158 = CARTESIAN_POINT ( 'NONE',  ( 6.140921104957897114E-13, 0.000000000000000000, 3.000000000000113687 ) ) ;
#159 = CALENDAR_DATE ( 2021, 25, 2 ) ;
#160 = DIRECTION ( 'NONE',  ( 0.000000000000000000, 0.000000000000000000, 1.000000000000000000 ) ) ;
#161 = DIRECTION ( 'NONE',  ( 0.000000000000000000, 1.000000000000000000, -0.000000000000000000 ) ) ;
#162 = CALENDAR_DATE ( 2021, 25, 2 ) ;
#163 = DIRECTION ( 'NONE',  ( 0.000000000000000000, -1.000000000000000000, -0.000000000000000000 ) ) ;
#164 = PERSON_AND_ORGANIZATION ( #23, #166 ) ;
#165 = CALENDAR_DATE ( 2021, 25, 2 ) ;
#166 = ORGANIZATION ( 'UNSPECIFIED', 'UNSPECIFIED', '' ) ;
#167 = ORIENTED_EDGE ( 'NONE', *, *, #20, .T. ) ;
#168 = ORIENTED_EDGE ( 'NONE', *, *, #29, .T. ) ;
#169 = AXIS2_PLACEMENT_3D ( 'NONE', #62, #9, #84 ) ;
#170 = ADVANCED_FACE ( 'NONE', ( #98 ), #7, .F. ) ;
#171 = APPROVAL ( #117, 'UNSPECIFIED' ) ;
#172 = DIRECTION ( 'NONE',  ( -1.000000000000000000, 0.000000000000000000, 0.000000000000000000 ) ) ;
#173 = CIRCLE ( 'NONE', #64, 5000.000000000000000 ) ;
#174 = AXIS2_PLACEMENT_3D ( 'NONE', #48, #79, #4 ) ;
#175 = DATE_AND_TIME ( #78, #180 ) ;
#176 = CARTESIAN_POINT ( 'NONE',  ( -6.349999999883173984, 0.000000000000000000, 3.000000000000113687 ) ) ;
#177 = COORDINATED_UNIVERSAL_TIME_OFFSET ( 2, 0, .AHEAD. ) ;
#178 = CARTESIAN_POINT ( 'NONE',  ( 0.000000000000000000, 0.000000000000000000, 3.000000000000000000 ) ) ;
#179 = APPROVAL_STATUS ( 'not_yet_approved' ) ;
#180 = LOCAL_TIME ( 10, 37, 25.00000000000000000, #112 ) ;
#181 = COORDINATED_UNIVERSAL_TIME_OFFSET ( 2, 0, .AHEAD. ) ;
#182 = APPLICATION_PROTOCOL_DEFINITION ( 'international standard', 'config_control_design', 1994, #195 ) ;
#183 = EDGE_LOOP ( 'NONE', ( #44, #69, #51 ) ) ;
#184 = UNCERTAINTY_MEASURE_WITH_UNIT (LENGTH_MEASURE( 1.000000000000000082E-05 ), #130, 'distance_accuracy_value', 'NONE');
#185 = DIRECTION ( 'NONE',  ( -0.000000000000000000, -0.000000000000000000, -1.000000000000000000 ) ) ;
#186 = APPROVAL_PERSON_ORGANIZATION ( #102, #171, #39 ) ;
#187 = DIRECTION ( 'NONE',  ( 1.000000000000000000, 0.000000000000000000, 0.000000000000000000 ) ) ;
#188 = FACE_OUTER_BOUND ( 'NONE', #52, .T. ) ;
#189 = SPHERICAL_SURFACE ( 'NONE', #148, 5000.000000000000000 ) ;
#190 = PERSON_AND_ORGANIZATION_ROLE ( 'creator' ) ;
#191 = ADVANCED_BREP_SHAPE_REPRESENTATION ( '010-1150E_UVFS_PCV_window', ( #67, #169 ), #80 ) ;
#192 = PERSON_AND_ORGANIZATION ( #23, #166 ) ;
#193 = PERSON_AND_ORGANIZATION_ROLE ( 'design_owner' ) ;
#194 = ORIENTED_EDGE ( 'NONE', *, *, #87, .T. ) ;
#195 = APPLICATION_CONTEXT ( 'configuration controlled 3d designs of mechanical parts and assemblies' ) ;
#196 = VERTEX_POINT ( 'NONE', #176 ) ;
#197 = VECTOR ( 'NONE', #125, 1000.000000000000000 ) ;
#198 = CC_DESIGN_PERSON_AND_ORGANIZATION_ASSIGNMENT ( #192, #31, ( #128 ) ) ;
#199 = CARTESIAN_POINT ( 'NONE',  ( 0.000000000000000000, 0.000000000000000000, 3.000000000000000000 ) ) ;
#200 = EDGE_LOOP ( 'NONE', ( #12, #119 ) ) ;
#201 = CARTESIAN_POINT ( 'NONE',  ( -6.349999999999999645, 0.000000000000000000, 0.000000000000000000 ) ) ;
ENDSEC;
END-ISO-10303-21;
