ISO-10303-21;
HEADER;
FILE_DESCRIPTION (( 'STEP AP203' ),
    '1' );
FILE_NAME ('010-1140E_UVFS_PCV_window.STEP',
    '2021-02-25T08:37:04',
    ( '' ),
    ( '' ),
    'SwSTEP 2.0',
    'SolidWorks 2019',
    '' );
FILE_SCHEMA (( 'CONFIG_CONTROL_DESIGN' ));
ENDSEC;

DATA;
#1 = PERSON_AND_ORGANIZATION ( #50, #80 ) ;
#2 = DESIGN_CONTEXT ( 'detailed design', #85, 'design' ) ;
#3 = DIRECTION ( 'NONE',  ( 0.000000000000000000, 1.000000000000000000, -0.000000000000000000 ) ) ;
#4 = LOCAL_TIME ( 10, 37, 4.000000000000000000, #139 ) ;
#5 = PRODUCT_DEFINITION ( 'UNKNOWN', '', #166, #2 ) ;
#6 = ORIENTED_EDGE ( 'NONE', *, *, #40, .T. ) ;
#7 = VERTEX_POINT ( 'NONE', #56 ) ;
#8 = ORIENTED_EDGE ( 'NONE', *, *, #65, .T. ) ;
#9 = CC_DESIGN_APPROVAL ( #177, ( #5 ) ) ;
#10 = APPROVAL_PERSON_ORGANIZATION ( #128, #177, #26 ) ;
#11 = DIRECTION ( 'NONE',  ( 1.000000000000000000, 0.000000000000000000, 0.000000000000000000 ) ) ;
#12 = COORDINATED_UNIVERSAL_TIME_OFFSET ( 2, 0, .AHEAD. ) ;
#13 = DATE_AND_TIME ( #25, #161 ) ;
#14 = DIRECTION ( 'NONE',  ( 0.000000000000000000, 0.000000000000000000, 1.000000000000000000 ) ) ;
#15 = EDGE_CURVE ( 'NONE', #102, #134, #60, .T. ) ;
#16 = FACE_OUTER_BOUND ( 'NONE', #87, .T. ) ;
#17 =( GEOMETRIC_REPRESENTATION_CONTEXT ( 3 ) GLOBAL_UNCERTAINTY_ASSIGNED_CONTEXT ( ( #199 ) ) GLOBAL_UNIT_ASSIGNED_CONTEXT ( ( #52, #69, #32 ) ) REPRESENTATION_CONTEXT ( 'NONE', 'WORKASPACE' ) );
#18 = PERSON_AND_ORGANIZATION_ROLE ( 'design_supplier' ) ;
#19 = CARTESIAN_POINT ( 'NONE',  ( 4.917941054394248113E-13, 0.000000000000000000, 4002.994959684324385 ) ) ;
#20 = CC_DESIGN_PERSON_AND_ORGANIZATION_ASSIGNMENT ( #67, #107, ( #84 ) ) ;
#21 = EDGE_CURVE ( 'NONE', #7, #86, #38, .T. ) ;
#22 = EDGE_LOOP ( 'NONE', ( #6, #132, #114, #55 ) ) ;
#23 = AXIS2_PLACEMENT_3D ( 'NONE', #115, #191, #11 ) ;
#24 = DIRECTION ( 'NONE',  ( 1.000000000000000000, 0.000000000000000000, 0.000000000000000000 ) ) ;
#25 = CALENDAR_DATE ( 2021, 25, 2 ) ;
#26 = APPROVAL_ROLE ( '' ) ;
#27 = LOCAL_TIME ( 10, 37, 4.000000000000000000, #201 ) ;
#28 = CYLINDRICAL_SURFACE ( 'NONE', #97, 6.349999999999999645 ) ;
#29 = SHAPE_DEFINITION_REPRESENTATION ( #151, #92 ) ;
#30 = CARTESIAN_POINT ( 'NONE',  ( 0.000000000000000000, 0.000000000000000000, 0.000000000000000000 ) ) ;
#31 = PERSON_AND_ORGANIZATION ( #50, #80 ) ;
#32 =( NAMED_UNIT ( * ) SI_UNIT ( $, .STERADIAN. ) SOLID_ANGLE_UNIT ( ) );
#33 = CC_DESIGN_SECURITY_CLASSIFICATION ( #178, ( #166 ) ) ;
#34 = AXIS2_PLACEMENT_3D ( 'NONE', #61, #14, #24 ) ;
#35 = ORIENTED_EDGE ( 'NONE', *, *, #21, .F. ) ;
#36 = ORIENTED_EDGE ( 'NONE', *, *, #188, .F. ) ;
#37 = CC_DESIGN_PERSON_AND_ORGANIZATION_ASSIGNMENT ( #130, #79, ( #166 ) ) ;
#38 = CIRCLE ( 'NONE', #187, 6.350000000163529279 ) ;
#39 = DIRECTION ( 'NONE',  ( -0.000000000000000000, -0.000000000000000000, -1.000000000000000000 ) ) ;
#40 = EDGE_CURVE ( 'NONE', #86, #7, #73, .T. ) ;
#41 = APPROVAL_DATE_TIME ( #76, #75 ) ;
#42 = DIRECTION ( 'NONE',  ( 0.000000000000000000, 0.000000000000000000, 1.000000000000000000 ) ) ;
#43 = DIRECTION ( 'NONE',  ( 1.000000000000000000, 0.000000000000000000, 0.000000000000000000 ) ) ;
#44 = PERSON_AND_ORGANIZATION ( #50, #80 ) ;
#45 = ADVANCED_FACE ( 'NONE', ( #74 ), #182, .F. ) ;
#46 = VECTOR ( 'NONE', #72, 1000.000000000000000 ) ;
#47 = DATE_AND_TIME ( #109, #27 ) ;
#48 = DIRECTION ( 'NONE',  ( -0.000000000000000000, -0.000000000000000000, -1.000000000000000000 ) ) ;
#49 = APPROVAL_ROLE ( '' ) ;
#50 = PERSON ( 'UNSPECIFIED', 'UNSPECIFIED', 'UNSPECIFIED', ('UNSPECIFIED'), ('UNSPECIFIED'), ('UNSPECIFIED') ) ;
#51 = APPLICATION_PROTOCOL_DEFINITION ( 'international standard', 'config_control_design', 1994, #82 ) ;
#52 =( LENGTH_UNIT ( ) NAMED_UNIT ( * ) SI_UNIT ( .MILLI., .METRE. ) );
#53 = PRODUCT_RELATED_PRODUCT_CATEGORY ( 'detail', '', ( #84 ) ) ;
#54 = CIRCLE ( 'NONE', #111, 4000.000000000000000 ) ;
#55 = ORIENTED_EDGE ( 'NONE', *, *, #126, .F. ) ;
#56 = CARTESIAN_POINT ( 'NONE',  ( 6.350000000164021330, 7.776507174786561787E-16, 3.000000000000113687 ) ) ;
#57 = ORIENTED_EDGE ( 'NONE', *, *, #15, .F. ) ;
#58 = VERTEX_POINT ( 'NONE', #195 ) ;
#59 = DIRECTION ( 'NONE',  ( -0.000000000000000000, -0.000000000000000000, -1.000000000000000000 ) ) ;
#60 = CIRCLE ( 'NONE', #23, 6.349999999999999645 ) ;
#61 = CARTESIAN_POINT ( 'NONE',  ( 0.000000000000000000, 0.000000000000000000, 0.000000000000000000 ) ) ;
#62 = MECHANICAL_CONTEXT ( 'NONE', #82, 'mechanical' ) ;
#63 = CARTESIAN_POINT ( 'NONE',  ( 0.000000000000000000, 0.000000000000000000, 3.000000000000000000 ) ) ;
#64 = DATE_TIME_ROLE ( 'creation_date' ) ;
#65 = EDGE_CURVE ( 'NONE', #134, #102, #163, .T. ) ;
#66 = PERSON_AND_ORGANIZATION ( #50, #80 ) ;
#67 = PERSON_AND_ORGANIZATION ( #50, #80 ) ;
#68 = SPHERICAL_SURFACE ( 'NONE', #143, 4000.000000000000000 ) ;
#69 =( NAMED_UNIT ( * ) PLANE_ANGLE_UNIT ( ) SI_UNIT ( $, .RADIAN. ) );
#70 = APPROVAL_PERSON_ORGANIZATION ( #31, #75, #49 ) ;
#71 = CARTESIAN_POINT ( 'NONE',  ( -6.349999999999999645, 0.000000000000000000, 3.000000000000000000 ) ) ;
#72 = DIRECTION ( 'NONE',  ( -0.000000000000000000, -0.000000000000000000, -1.000000000000000000 ) ) ;
#73 = CIRCLE ( 'NONE', #190, 6.350000000163529279 ) ;
#74 = FACE_OUTER_BOUND ( 'NONE', #149, .T. ) ;
#75 = APPROVAL ( #124, 'UNSPECIFIED' ) ;
#76 = DATE_AND_TIME ( #157, #148 ) ;
#77 = CARTESIAN_POINT ( 'NONE',  ( 4.917941054394248113E-13, 0.000000000000000000, 3.000000000000113687 ) ) ;
#78 = APPROVAL_STATUS ( 'not_yet_approved' ) ;
#79 = PERSON_AND_ORGANIZATION_ROLE ( 'creator' ) ;
#80 = ORGANIZATION ( 'UNSPECIFIED', 'UNSPECIFIED', '' ) ;
#81 = SECURITY_CLASSIFICATION_LEVEL ( 'unclassified' ) ;
#82 = APPLICATION_CONTEXT ( 'configuration controlled 3d designs of mechanical parts and assemblies' ) ;
#83 = DIRECTION ( 'NONE',  ( -1.000000000000000000, 0.000000000000000000, 0.000000000000000000 ) ) ;
#84 = PRODUCT ( '010-1140E_UVFS_PCV_window', '010-1140E_UVFS_PCV_window', '', ( #62 ) ) ;
#85 = APPLICATION_CONTEXT ( 'configuration controlled 3d designs of mechanical parts and assemblies' ) ;
#86 = VERTEX_POINT ( 'NONE', #127 ) ;
#87 = EDGE_LOOP ( 'NONE', ( #174, #35, #176 ) ) ;
#88 = AXIS2_PLACEMENT_3D ( 'NONE', #185, #113, #129 ) ;
#89 = DIRECTION ( 'NONE',  ( -1.000000000000000000, 0.000000000000000000, 0.000000000000000000 ) ) ;
#90 = COORDINATED_UNIVERSAL_TIME_OFFSET ( 2, 0, .AHEAD. ) ;
#91 = EDGE_CURVE ( 'NONE', #7, #102, #197, .T. ) ;
#92 = ADVANCED_BREP_SHAPE_REPRESENTATION ( '010-1140E_UVFS_PCV_window', ( #142, #88 ), #17 ) ;
#93 = PERSON_AND_ORGANIZATION_ROLE ( 'creator' ) ;
#94 = LINE ( 'NONE', #71, #193 ) ;
#95 = DATE_AND_TIME ( #140, #183 ) ;
#96 = ADVANCED_FACE ( 'NONE', ( #110 ), #121, .F. ) ;
#97 = AXIS2_PLACEMENT_3D ( 'NONE', #63, #48, #89 ) ;
#98 = DIRECTION ( 'NONE',  ( 1.224646799147353207E-16, -1.000000000000000000, 0.000000000000000000 ) ) ;
#99 = ADVANCED_FACE ( 'NONE', ( #106 ), #28, .T. ) ;
#100 = EDGE_LOOP ( 'NONE', ( #133, #57 ) ) ;
#101 = APPROVAL ( #78, 'UNSPECIFIED' ) ;
#102 = VERTEX_POINT ( 'NONE', #122 ) ;
#103 = CIRCLE ( 'NONE', #153, 4000.000000000000000 ) ;
#104 = CARTESIAN_POINT ( 'NONE',  ( 4.917941054394248113E-13, 0.000000000000000000, 3.000000000000113687 ) ) ;
#105 = DATE_TIME_ROLE ( 'classification_date' ) ;
#106 = FACE_OUTER_BOUND ( 'NONE', #150, .T. ) ;
#107 = PERSON_AND_ORGANIZATION_ROLE ( 'design_owner' ) ;
#108 = DIRECTION ( 'NONE',  ( 1.000000000000000000, 0.000000000000000000, 0.000000000000000000 ) ) ;
#109 = CALENDAR_DATE ( 2021, 25, 2 ) ;
#110 = FACE_OUTER_BOUND ( 'NONE', #100, .T. ) ;
#111 = AXIS2_PLACEMENT_3D ( 'NONE', #147, #3, #145 ) ;
#112 = CARTESIAN_POINT ( 'NONE',  ( 0.000000000000000000, 0.000000000000000000, 3.000000000000000000 ) ) ;
#113 = DIRECTION ( 'NONE',  ( 0.000000000000000000, 0.000000000000000000, 1.000000000000000000 ) ) ;
#114 = ORIENTED_EDGE ( 'NONE', *, *, #15, .T. ) ;
#115 = CARTESIAN_POINT ( 'NONE',  ( 0.000000000000000000, 0.000000000000000000, 0.000000000000000000 ) ) ;
#116 = CLOSED_SHELL ( 'NONE', ( #45, #159, #99, #96, #167 ) ) ;
#117 = CC_DESIGN_PERSON_AND_ORGANIZATION_ASSIGNMENT ( #1, #93, ( #5 ) ) ;
#118 = ORIENTED_EDGE ( 'NONE', *, *, #21, .T. ) ;
#119 = AXIS2_PLACEMENT_3D ( 'NONE', #200, #194, #156 ) ;
#120 = CC_DESIGN_APPROVAL ( #101, ( #178 ) ) ;
#121 = PLANE ( 'NONE',  #173 ) ;
#122 = CARTESIAN_POINT ( 'NONE',  ( 6.349999999999999645, 7.776507174585692163E-16, 0.000000000000000000 ) ) ;
#123 = APPROVAL_STATUS ( 'not_yet_approved' ) ;
#124 = APPROVAL_STATUS ( 'not_yet_approved' ) ;
#125 = AXIS2_PLACEMENT_3D ( 'NONE', #112, #162, #83 ) ;
#126 = EDGE_CURVE ( 'NONE', #86, #134, #94, .T. ) ;
#127 = CARTESIAN_POINT ( 'NONE',  ( -6.350000000163038116, 0.000000000000000000, 3.000000000000113687 ) ) ;
#128 = PERSON_AND_ORGANIZATION ( #50, #80 ) ;
#129 = DIRECTION ( 'NONE',  ( 1.000000000000000000, 0.000000000000000000, 0.000000000000000000 ) ) ;
#130 = PERSON_AND_ORGANIZATION ( #50, #80 ) ;
#131 = DIRECTION ( 'NONE',  ( 0.000000000000000000, -1.000000000000000000, -0.000000000000000000 ) ) ;
#132 = ORIENTED_EDGE ( 'NONE', *, *, #91, .T. ) ;
#133 = ORIENTED_EDGE ( 'NONE', *, *, #65, .F. ) ;
#134 = VERTEX_POINT ( 'NONE', #136 ) ;
#135 = ORIENTED_EDGE ( 'NONE', *, *, #91, .F. ) ;
#136 = CARTESIAN_POINT ( 'NONE',  ( -6.349999999999999645, 0.000000000000000000, 0.000000000000000000 ) ) ;
#137 = EDGE_CURVE ( 'NONE', #86, #58, #103, .T. ) ;
#138 = DIRECTION ( 'NONE',  ( 1.000000000000000000, 0.000000000000000000, -0.000000000000000000 ) ) ;
#139 = COORDINATED_UNIVERSAL_TIME_OFFSET ( 2, 0, .AHEAD. ) ;
#140 = CALENDAR_DATE ( 2021, 25, 2 ) ;
#141 = CC_DESIGN_DATE_AND_TIME_ASSIGNMENT ( #181, #105, ( #178 ) ) ;
#142 = MANIFOLD_SOLID_BREP ( 'Cut-Revolve1', #116 ) ;
#143 = AXIS2_PLACEMENT_3D ( 'NONE', #19, #131, #189 ) ;
#144 = APPROVAL_ROLE ( '' ) ;
#145 = DIRECTION ( 'NONE',  ( 0.000000000000000000, 0.000000000000000000, 1.000000000000000000 ) ) ;
#146 = FACE_OUTER_BOUND ( 'NONE', #22, .T. ) ;
#147 = CARTESIAN_POINT ( 'NONE',  ( 4.917941054394248113E-13, 0.000000000000000000, 4002.994959684324385 ) ) ;
#148 = LOCAL_TIME ( 10, 37, 4.000000000000000000, #12 ) ;
#149 = EDGE_LOOP ( 'NONE', ( #165, #192, #36 ) ) ;
#150 = EDGE_LOOP ( 'NONE', ( #135, #118, #152, #8 ) ) ;
#151 = PRODUCT_DEFINITION_SHAPE ( 'NONE', 'NONE',  #5 ) ;
#152 = ORIENTED_EDGE ( 'NONE', *, *, #126, .T. ) ;
#153 = AXIS2_PLACEMENT_3D ( 'NONE', #158, #98, #164 ) ;
#154 = CARTESIAN_POINT ( 'NONE',  ( 6.349999999999999645, 7.776507174585692163E-16, 3.000000000000000000 ) ) ;
#155 = CC_DESIGN_PERSON_AND_ORGANIZATION_ASSIGNMENT ( #66, #184, ( #178 ) ) ;
#156 = DIRECTION ( 'NONE',  ( 1.000000000000000000, 0.000000000000000000, 0.000000000000000000 ) ) ;
#157 = CALENDAR_DATE ( 2021, 25, 2 ) ;
#158 = CARTESIAN_POINT ( 'NONE',  ( 4.917941054394248113E-13, 0.000000000000000000, 4002.994959684324385 ) ) ;
#159 = ADVANCED_FACE ( 'NONE', ( #146 ), #172, .T. ) ;
#160 = PERSON_AND_ORGANIZATION ( #50, #80 ) ;
#161 = LOCAL_TIME ( 10, 37, 4.000000000000000000, #198 ) ;
#162 = DIRECTION ( 'NONE',  ( -0.000000000000000000, -0.000000000000000000, -1.000000000000000000 ) ) ;
#163 = CIRCLE ( 'NONE', #34, 6.349999999999999645 ) ;
#164 = DIRECTION ( 'NONE',  ( 1.000000000000000000, 1.224646799147353207E-16, 0.000000000000000000 ) ) ;
#165 = ORIENTED_EDGE ( 'NONE', *, *, #40, .F. ) ;
#166 = PRODUCT_DEFINITION_FORMATION_WITH_SPECIFIED_SOURCE ( 'ANY', '', #84, .NOT_KNOWN. ) ;
#167 = ADVANCED_FACE ( 'NONE', ( #16 ), #68, .F. ) ;
#168 = CALENDAR_DATE ( 2021, 25, 2 ) ;
#169 = APPROVAL_DATE_TIME ( #47, #101 ) ;
#170 = APPROVAL_PERSON_ORGANIZATION ( #44, #101, #144 ) ;
#171 = CC_DESIGN_DATE_AND_TIME_ASSIGNMENT ( #13, #64, ( #5 ) ) ;
#172 = CYLINDRICAL_SURFACE ( 'NONE', #125, 6.349999999999999645 ) ;
#173 = AXIS2_PLACEMENT_3D ( 'NONE', #30, #42, #138 ) ;
#174 = ORIENTED_EDGE ( 'NONE', *, *, #137, .F. ) ;
#175 = CC_DESIGN_APPROVAL ( #75, ( #166 ) ) ;
#176 = ORIENTED_EDGE ( 'NONE', *, *, #188, .T. ) ;
#177 = APPROVAL ( #123, 'UNSPECIFIED' ) ;
#178 = SECURITY_CLASSIFICATION ( '', '', #81 ) ;
#179 = DIRECTION ( 'NONE',  ( -0.000000000000000000, -0.000000000000000000, -1.000000000000000000 ) ) ;
#180 = APPROVAL_DATE_TIME ( #95, #177 ) ;
#181 = DATE_AND_TIME ( #168, #4 ) ;
#182 = SPHERICAL_SURFACE ( 'NONE', #119, 4000.000000000000000 ) ;
#183 = LOCAL_TIME ( 10, 37, 4.000000000000000000, #90 ) ;
#184 = PERSON_AND_ORGANIZATION_ROLE ( 'classification_officer' ) ;
#185 = CARTESIAN_POINT ( 'NONE',  ( 0.000000000000000000, 0.000000000000000000, 0.000000000000000000 ) ) ;
#186 = CC_DESIGN_PERSON_AND_ORGANIZATION_ASSIGNMENT ( #160, #18, ( #166 ) ) ;
#187 = AXIS2_PLACEMENT_3D ( 'NONE', #104, #59, #43 ) ;
#188 = EDGE_CURVE ( 'NONE', #7, #58, #54, .T. ) ;
#189 = DIRECTION ( 'NONE',  ( 1.000000000000000000, 0.000000000000000000, 0.000000000000000000 ) ) ;
#190 = AXIS2_PLACEMENT_3D ( 'NONE', #77, #39, #108 ) ;
#191 = DIRECTION ( 'NONE',  ( 0.000000000000000000, 0.000000000000000000, 1.000000000000000000 ) ) ;
#192 = ORIENTED_EDGE ( 'NONE', *, *, #137, .T. ) ;
#193 = VECTOR ( 'NONE', #179, 1000.000000000000000 ) ;
#194 = DIRECTION ( 'NONE',  ( 0.000000000000000000, -1.000000000000000000, -0.000000000000000000 ) ) ;
#195 = CARTESIAN_POINT ( 'NONE',  ( 7.367234652688955115E-13, 0.000000000000000000, 2.994959684324172144 ) ) ;
#196 = APPLICATION_PROTOCOL_DEFINITION ( 'international standard', 'config_control_design', 1994, #85 ) ;
#197 = LINE ( 'NONE', #154, #46 ) ;
#198 = COORDINATED_UNIVERSAL_TIME_OFFSET ( 2, 0, .AHEAD. ) ;
#199 = UNCERTAINTY_MEASURE_WITH_UNIT (LENGTH_MEASURE( 1.000000000000000082E-05 ), #52, 'distance_accuracy_value', 'NONE');
#200 = CARTESIAN_POINT ( 'NONE',  ( 4.917941054394248113E-13, 0.000000000000000000, 4002.994959684324385 ) ) ;
#201 = COORDINATED_UNIVERSAL_TIME_OFFSET ( 2, 0, .AHEAD. ) ;
ENDSEC;
END-ISO-10303-21;
