ISO-10303-21;
HEADER;
FILE_DESCRIPTION (( 'STEP AP203' ),
    '1' );
FILE_NAME ('010-1130E_UVFS_PCV_window.STEP',
    '2021-02-25T08:36:39',
    ( '' ),
    ( '' ),
    'SwSTEP 2.0',
    'SolidWorks 2019',
    '' );
FILE_SCHEMA (( 'CONFIG_CONTROL_DESIGN' ));
ENDSEC;

DATA;
#1 = APPROVAL_PERSON_ORGANIZATION ( #66, #170, #31 ) ;
#2 = CARTESIAN_POINT ( 'NONE',  ( 0.000000000000000000, 0.000000000000000000, 0.000000000000000000 ) ) ;
#3 = ORIENTED_EDGE ( 'NONE', *, *, #138, .T. ) ;
#4 = CARTESIAN_POINT ( 'NONE',  ( 3.694961003830599111E-13, 0.000000000000000000, 3.000000000000113687 ) ) ;
#5 = APPROVAL_PERSON_ORGANIZATION ( #188, #34, #41 ) ;
#6 = DIRECTION ( 'NONE',  ( -1.000000000000000000, 0.000000000000000000, 0.000000000000000000 ) ) ;
#7 = CARTESIAN_POINT ( 'NONE',  ( -6.349999999999999645, 0.000000000000000000, 0.000000000000000000 ) ) ;
#8 = CARTESIAN_POINT ( 'NONE',  ( 6.349999999999999645, 7.776507174585692163E-16, 3.000000000000000000 ) ) ;
#9 = CARTESIAN_POINT ( 'NONE',  ( 5.531931202551628353E-13, 0.000000000000000000, 2.993279575806084836 ) ) ;
#10 = CYLINDRICAL_SURFACE ( 'NONE', #167, 6.349999999999999645 ) ;
#11 = CC_DESIGN_PERSON_AND_ORGANIZATION_ASSIGNMENT ( #168, #98, ( #179 ) ) ;
#12 = UNCERTAINTY_MEASURE_WITH_UNIT (LENGTH_MEASURE( 1.000000000000000082E-05 ), #47, 'distance_accuracy_value', 'NONE');
#13 = MECHANICAL_CONTEXT ( 'NONE', #132, 'mechanical' ) ;
#14 = CIRCLE ( 'NONE', #124, 6.350000000023658941 ) ;
#15 = PERSON_AND_ORGANIZATION ( #84, #131 ) ;
#16 = CALENDAR_DATE ( 2021, 25, 2 ) ;
#17 = PERSON_AND_ORGANIZATION_ROLE ( 'creator' ) ;
#18 = AXIS2_PLACEMENT_3D ( 'NONE', #40, #134, #164 ) ;
#19 = AXIS2_PLACEMENT_3D ( 'NONE', #75, #178, #44 ) ;
#20 = EDGE_CURVE ( 'NONE', #114, #87, #108, .T. ) ;
#21 = ORIENTED_EDGE ( 'NONE', *, *, #153, .F. ) ;
#22 = ORIENTED_EDGE ( 'NONE', *, *, #115, .F. ) ;
#23 = AXIS2_PLACEMENT_3D ( 'NONE', #107, #119, #58 ) ;
#24 = DIRECTION ( 'NONE',  ( 1.000000000000000000, 0.000000000000000000, 0.000000000000000000 ) ) ;
#25 = PRODUCT_DEFINITION_SHAPE ( 'NONE', 'NONE',  #43 ) ;
#26 = DIRECTION ( 'NONE',  ( -1.000000000000000000, 0.000000000000000000, 0.000000000000000000 ) ) ;
#27 = CARTESIAN_POINT ( 'NONE',  ( 6.350000000024028424, 7.776507174615119633E-16, 3.000000000000113687 ) ) ;
#28 = DIRECTION ( 'NONE',  ( -0.000000000000000000, -0.000000000000000000, -1.000000000000000000 ) ) ;
#29 = VECTOR ( 'NONE', #154, 1000.000000000000000 ) ;
#30 = PERSON_AND_ORGANIZATION_ROLE ( 'design_owner' ) ;
#31 = APPROVAL_ROLE ( '' ) ;
#32 = PERSON_AND_ORGANIZATION ( #84, #131 ) ;
#33 = SECURITY_CLASSIFICATION_LEVEL ( 'unclassified' ) ;
#34 = APPROVAL ( #57, 'UNSPECIFIED' ) ;
#35 = LOCAL_TIME ( 10, 36, 39.00000000000000000, #68 ) ;
#36 = ADVANCED_BREP_SHAPE_REPRESENTATION ( '010-1130E_UVFS_PCV_window', ( #162, #99 ), #133 ) ;
#37 = LOCAL_TIME ( 10, 36, 39.00000000000000000, #193 ) ;
#38 = AXIS2_PLACEMENT_3D ( 'NONE', #62, #60, #78 ) ;
#39 = ORIENTED_EDGE ( 'NONE', *, *, #100, .T. ) ;
#40 = CARTESIAN_POINT ( 'NONE',  ( 3.694961003830599111E-13, 0.000000000000000000, 3.000000000000113687 ) ) ;
#41 = APPROVAL_ROLE ( '' ) ;
#42 = CC_DESIGN_APPROVAL ( #34, ( #43 ) ) ;
#43 = PRODUCT_DEFINITION ( 'UNKNOWN', '', #179, #157 ) ;
#44 = DIRECTION ( 'NONE',  ( 1.000000000000000000, 0.000000000000000000, 0.000000000000000000 ) ) ;
#45 =( NAMED_UNIT ( * ) PLANE_ANGLE_UNIT ( ) SI_UNIT ( $, .RADIAN. ) );
#46 = CARTESIAN_POINT ( 'NONE',  ( 0.000000000000000000, 0.000000000000000000, 0.000000000000000000 ) ) ;
#47 =( LENGTH_UNIT ( ) NAMED_UNIT ( * ) SI_UNIT ( .MILLI., .METRE. ) );
#48 = CARTESIAN_POINT ( 'NONE',  ( 3.694961003830599111E-13, 0.000000000000000000, 3002.993279575805900 ) ) ;
#49 = DIRECTION ( 'NONE',  ( 1.000000000000000000, 0.000000000000000000, 0.000000000000000000 ) ) ;
#50 = EDGE_CURVE ( 'NONE', #116, #54, #93, .T. ) ;
#51 = AXIS2_PLACEMENT_3D ( 'NONE', #48, #155, #151 ) ;
#52 = DATE_AND_TIME ( #198, #72 ) ;
#53 = COORDINATED_UNIVERSAL_TIME_OFFSET ( 2, 0, .AHEAD. ) ;
#54 = VERTEX_POINT ( 'NONE', #27 ) ;
#55 = ORIENTED_EDGE ( 'NONE', *, *, #115, .T. ) ;
#56 = CIRCLE ( 'NONE', #51, 3000.000000000000000 ) ;
#57 = APPROVAL_STATUS ( 'not_yet_approved' ) ;
#58 = DIRECTION ( 'NONE',  ( 0.000000000000000000, 0.000000000000000000, 1.000000000000000000 ) ) ;
#59 = ORIENTED_EDGE ( 'NONE', *, *, #20, .T. ) ;
#60 = DIRECTION ( 'NONE',  ( 0.000000000000000000, -1.000000000000000000, -0.000000000000000000 ) ) ;
#61 = EDGE_CURVE ( 'NONE', #116, #186, #56, .T. ) ;
#62 = CARTESIAN_POINT ( 'NONE',  ( 3.694961003830599111E-13, 0.000000000000000000, 3002.993279575805900 ) ) ;
#63 = CC_DESIGN_APPROVAL ( #147, ( #106 ) ) ;
#64 = CARTESIAN_POINT ( 'NONE',  ( 6.349999999999999645, 7.776507174585692163E-16, 0.000000000000000000 ) ) ;
#65 = DATE_TIME_ROLE ( 'classification_date' ) ;
#66 = PERSON_AND_ORGANIZATION ( #84, #131 ) ;
#67 = ADVANCED_FACE ( 'NONE', ( #123 ), #166, .T. ) ;
#68 = COORDINATED_UNIVERSAL_TIME_OFFSET ( 2, 0, .AHEAD. ) ;
#69 = CLOSED_SHELL ( 'NONE', ( #83, #80, #67, #95, #182 ) ) ;
#70 = ORIENTED_EDGE ( 'NONE', *, *, #50, .T. ) ;
#71 = APPLICATION_CONTEXT ( 'configuration controlled 3d designs of mechanical parts and assemblies' ) ;
#72 = LOCAL_TIME ( 10, 36, 39.00000000000000000, #82 ) ;
#73 = DIRECTION ( 'NONE',  ( 0.000000000000000000, 0.000000000000000000, 1.000000000000000000 ) ) ;
#74 = EDGE_LOOP ( 'NONE', ( #176, #21, #3 ) ) ;
#75 = CARTESIAN_POINT ( 'NONE',  ( 3.694961003830599111E-13, 0.000000000000000000, 3002.993279575805900 ) ) ;
#76 = DIRECTION ( 'NONE',  ( 0.000000000000000000, 0.000000000000000000, 1.000000000000000000 ) ) ;
#77 = CARTESIAN_POINT ( 'NONE',  ( 0.000000000000000000, 0.000000000000000000, 0.000000000000000000 ) ) ;
#78 = DIRECTION ( 'NONE',  ( 1.000000000000000000, 0.000000000000000000, 0.000000000000000000 ) ) ;
#79 = FACE_OUTER_BOUND ( 'NONE', #120, .T. ) ;
#80 = ADVANCED_FACE ( 'NONE', ( #137 ), #10, .T. ) ;
#81 = PERSON_AND_ORGANIZATION_ROLE ( 'creator' ) ;
#82 = COORDINATED_UNIVERSAL_TIME_OFFSET ( 2, 0, .AHEAD. ) ;
#83 = ADVANCED_FACE ( 'NONE', ( #79 ), #192, .F. ) ;
#84 = PERSON ( 'UNSPECIFIED', 'UNSPECIFIED', 'UNSPECIFIED', ('UNSPECIFIED'), ('UNSPECIFIED'), ('UNSPECIFIED') ) ;
#85 = PRODUCT_RELATED_PRODUCT_CATEGORY ( 'detail', '', ( #165 ) ) ;
#86 = EDGE_LOOP ( 'NONE', ( #70, #173, #55, #101 ) ) ;
#87 = VERTEX_POINT ( 'NONE', #64 ) ;
#88 = CC_DESIGN_PERSON_AND_ORGANIZATION_ASSIGNMENT ( #145, #17, ( #179 ) ) ;
#89 = ORIENTED_EDGE ( 'NONE', *, *, #50, .F. ) ;
#90 = SPHERICAL_SURFACE ( 'NONE', #19, 3000.000000000000000 ) ;
#91 = LINE ( 'NONE', #105, #29 ) ;
#92 = CARTESIAN_POINT ( 'NONE',  ( 0.000000000000000000, 0.000000000000000000, 3.000000000000000000 ) ) ;
#93 = CIRCLE ( 'NONE', #18, 6.350000000023658941 ) ;
#94 = APPLICATION_PROTOCOL_DEFINITION ( 'international standard', 'config_control_design', 1994, #71 ) ;
#95 = ADVANCED_FACE ( 'NONE', ( #190 ), #140, .F. ) ;
#96 = APPROVAL_STATUS ( 'not_yet_approved' ) ;
#97 = PERSON_AND_ORGANIZATION ( #84, #131 ) ;
#98 = PERSON_AND_ORGANIZATION_ROLE ( 'design_supplier' ) ;
#99 = AXIS2_PLACEMENT_3D ( 'NONE', #122, #156, #189 ) ;
#100 = EDGE_CURVE ( 'NONE', #116, #114, #91, .T. ) ;
#101 = ORIENTED_EDGE ( 'NONE', *, *, #100, .F. ) ;
#102 = AXIS2_PLACEMENT_3D ( 'NONE', #77, #125, #24 ) ;
#103 = DIRECTION ( 'NONE',  ( -0.000000000000000000, -0.000000000000000000, -1.000000000000000000 ) ) ;
#104 = EDGE_LOOP ( 'NONE', ( #118, #172, #39, #59 ) ) ;
#105 = CARTESIAN_POINT ( 'NONE',  ( -6.349999999999999645, 0.000000000000000000, 3.000000000000000000 ) ) ;
#106 = SECURITY_CLASSIFICATION ( '', '', #33 ) ;
#107 = CARTESIAN_POINT ( 'NONE',  ( 3.694961003830599111E-13, 0.000000000000000000, 3002.993279575805900 ) ) ;
#108 = CIRCLE ( 'NONE', #117, 6.349999999999999645 ) ;
#109 = DATE_TIME_ROLE ( 'creation_date' ) ;
#110 = APPROVAL_DATE_TIME ( #52, #34 ) ;
#111 = CC_DESIGN_SECURITY_CLASSIFICATION ( #106, ( #179 ) ) ;
#112 = EDGE_CURVE ( 'NONE', #54, #87, #177, .T. ) ;
#113 = CALENDAR_DATE ( 2021, 25, 2 ) ;
#114 = VERTEX_POINT ( 'NONE', #7 ) ;
#115 = EDGE_CURVE ( 'NONE', #87, #114, #144, .T. ) ;
#116 = VERTEX_POINT ( 'NONE', #152 ) ;
#117 = AXIS2_PLACEMENT_3D ( 'NONE', #2, #73, #174 ) ;
#118 = ORIENTED_EDGE ( 'NONE', *, *, #112, .F. ) ;
#119 = DIRECTION ( 'NONE',  ( 0.000000000000000000, 1.000000000000000000, -0.000000000000000000 ) ) ;
#120 = EDGE_LOOP ( 'NONE', ( #89, #201, #148 ) ) ;
#121 = DIRECTION ( 'NONE',  ( 1.000000000000000000, 0.000000000000000000, -0.000000000000000000 ) ) ;
#122 = CARTESIAN_POINT ( 'NONE',  ( 0.000000000000000000, 0.000000000000000000, 0.000000000000000000 ) ) ;
#123 = FACE_OUTER_BOUND ( 'NONE', #104, .T. ) ;
#124 = AXIS2_PLACEMENT_3D ( 'NONE', #4, #180, #49 ) ;
#125 = DIRECTION ( 'NONE',  ( 0.000000000000000000, 0.000000000000000000, 1.000000000000000000 ) ) ;
#126 = CALENDAR_DATE ( 2021, 25, 2 ) ;
#127 = DATE_AND_TIME ( #16, #35 ) ;
#128 = LOCAL_TIME ( 10, 36, 39.00000000000000000, #159 ) ;
#129 = APPROVAL_ROLE ( '' ) ;
#130 = CC_DESIGN_DATE_AND_TIME_ASSIGNMENT ( #127, #65, ( #106 ) ) ;
#131 = ORGANIZATION ( 'UNSPECIFIED', 'UNSPECIFIED', '' ) ;
#132 = APPLICATION_CONTEXT ( 'configuration controlled 3d designs of mechanical parts and assemblies' ) ;
#133 =( GEOMETRIC_REPRESENTATION_CONTEXT ( 3 ) GLOBAL_UNCERTAINTY_ASSIGNED_CONTEXT ( ( #12 ) ) GLOBAL_UNIT_ASSIGNED_CONTEXT ( ( #47, #45, #163 ) ) REPRESENTATION_CONTEXT ( 'NONE', 'WORKASPACE' ) );
#134 = DIRECTION ( 'NONE',  ( -0.000000000000000000, -0.000000000000000000, -1.000000000000000000 ) ) ;
#135 = CARTESIAN_POINT ( 'NONE',  ( 0.000000000000000000, 0.000000000000000000, 3.000000000000000000 ) ) ;
#136 = AXIS2_PLACEMENT_3D ( 'NONE', #135, #28, #6 ) ;
#137 = FACE_OUTER_BOUND ( 'NONE', #86, .T. ) ;
#138 = EDGE_CURVE ( 'NONE', #54, #186, #171, .T. ) ;
#139 = PERSON_AND_ORGANIZATION ( #84, #131 ) ;
#140 = PLANE ( 'NONE',  #199 ) ;
#141 = DATE_AND_TIME ( #113, #149 ) ;
#142 = APPROVAL_STATUS ( 'not_yet_approved' ) ;
#143 = APPROVAL_DATE_TIME ( #169, #170 ) ;
#144 = CIRCLE ( 'NONE', #102, 6.349999999999999645 ) ;
#145 = PERSON_AND_ORGANIZATION ( #84, #131 ) ;
#146 = CC_DESIGN_PERSON_AND_ORGANIZATION_ASSIGNMENT ( #139, #30, ( #165 ) ) ;
#147 = APPROVAL ( #96, 'UNSPECIFIED' ) ;
#148 = ORIENTED_EDGE ( 'NONE', *, *, #138, .F. ) ;
#149 = LOCAL_TIME ( 10, 36, 39.00000000000000000, #53 ) ;
#150 = ORIENTED_EDGE ( 'NONE', *, *, #20, .F. ) ;
#151 = DIRECTION ( 'NONE',  ( 1.000000000000000000, 1.224646799147353207E-16, 0.000000000000000000 ) ) ;
#152 = CARTESIAN_POINT ( 'NONE',  ( -6.350000000023290347, 0.000000000000000000, 3.000000000000113687 ) ) ;
#153 = EDGE_CURVE ( 'NONE', #54, #116, #14, .T. ) ;
#154 = DIRECTION ( 'NONE',  ( -0.000000000000000000, -0.000000000000000000, -1.000000000000000000 ) ) ;
#155 = DIRECTION ( 'NONE',  ( 1.224646799147353207E-16, -1.000000000000000000, 0.000000000000000000 ) ) ;
#156 = DIRECTION ( 'NONE',  ( 0.000000000000000000, 0.000000000000000000, 1.000000000000000000 ) ) ;
#157 = DESIGN_CONTEXT ( 'detailed design', #71, 'design' ) ;
#158 = PERSON_AND_ORGANIZATION_ROLE ( 'classification_officer' ) ;
#159 = COORDINATED_UNIVERSAL_TIME_OFFSET ( 2, 0, .AHEAD. ) ;
#160 = EDGE_LOOP ( 'NONE', ( #150, #22 ) ) ;
#161 = FACE_OUTER_BOUND ( 'NONE', #74, .T. ) ;
#162 = MANIFOLD_SOLID_BREP ( 'Cut-Revolve1', #69 ) ;
#163 =( NAMED_UNIT ( * ) SI_UNIT ( $, .STERADIAN. ) SOLID_ANGLE_UNIT ( ) );
#164 = DIRECTION ( 'NONE',  ( 1.000000000000000000, 0.000000000000000000, 0.000000000000000000 ) ) ;
#165 = PRODUCT ( '010-1130E_UVFS_PCV_window', '010-1130E_UVFS_PCV_window', '', ( #13 ) ) ;
#166 = CYLINDRICAL_SURFACE ( 'NONE', #136, 6.349999999999999645 ) ;
#167 = AXIS2_PLACEMENT_3D ( 'NONE', #92, #191, #26 ) ;
#168 = PERSON_AND_ORGANIZATION ( #84, #131 ) ;
#169 = DATE_AND_TIME ( #194, #128 ) ;
#170 = APPROVAL ( #142, 'UNSPECIFIED' ) ;
#171 = CIRCLE ( 'NONE', #23, 3000.000000000000000 ) ;
#172 = ORIENTED_EDGE ( 'NONE', *, *, #153, .T. ) ;
#173 = ORIENTED_EDGE ( 'NONE', *, *, #112, .T. ) ;
#174 = DIRECTION ( 'NONE',  ( 1.000000000000000000, 0.000000000000000000, 0.000000000000000000 ) ) ;
#175 = APPLICATION_PROTOCOL_DEFINITION ( 'international standard', 'config_control_design', 1994, #132 ) ;
#176 = ORIENTED_EDGE ( 'NONE', *, *, #61, .F. ) ;
#177 = LINE ( 'NONE', #8, #184 ) ;
#178 = DIRECTION ( 'NONE',  ( 0.000000000000000000, -1.000000000000000000, -0.000000000000000000 ) ) ;
#179 = PRODUCT_DEFINITION_FORMATION_WITH_SPECIFIED_SOURCE ( 'ANY', '', #165, .NOT_KNOWN. ) ;
#180 = DIRECTION ( 'NONE',  ( -0.000000000000000000, -0.000000000000000000, -1.000000000000000000 ) ) ;
#181 = SHAPE_DEFINITION_REPRESENTATION ( #25, #36 ) ;
#182 = ADVANCED_FACE ( 'NONE', ( #161 ), #90, .F. ) ;
#183 = APPROVAL_DATE_TIME ( #197, #147 ) ;
#184 = VECTOR ( 'NONE', #103, 1000.000000000000000 ) ;
#185 = CC_DESIGN_PERSON_AND_ORGANIZATION_ASSIGNMENT ( #97, #158, ( #106 ) ) ;
#186 = VERTEX_POINT ( 'NONE', #9 ) ;
#187 = CC_DESIGN_APPROVAL ( #170, ( #179 ) ) ;
#188 = PERSON_AND_ORGANIZATION ( #84, #131 ) ;
#189 = DIRECTION ( 'NONE',  ( 1.000000000000000000, 0.000000000000000000, 0.000000000000000000 ) ) ;
#190 = FACE_OUTER_BOUND ( 'NONE', #160, .T. ) ;
#191 = DIRECTION ( 'NONE',  ( -0.000000000000000000, -0.000000000000000000, -1.000000000000000000 ) ) ;
#192 = SPHERICAL_SURFACE ( 'NONE', #38, 3000.000000000000000 ) ;
#193 = COORDINATED_UNIVERSAL_TIME_OFFSET ( 2, 0, .AHEAD. ) ;
#194 = CALENDAR_DATE ( 2021, 25, 2 ) ;
#195 = CC_DESIGN_DATE_AND_TIME_ASSIGNMENT ( #141, #109, ( #43 ) ) ;
#196 = APPROVAL_PERSON_ORGANIZATION ( #32, #147, #129 ) ;
#197 = DATE_AND_TIME ( #126, #37 ) ;
#198 = CALENDAR_DATE ( 2021, 25, 2 ) ;
#199 = AXIS2_PLACEMENT_3D ( 'NONE', #46, #76, #121 ) ;
#200 = CC_DESIGN_PERSON_AND_ORGANIZATION_ASSIGNMENT ( #15, #81, ( #43 ) ) ;
#201 = ORIENTED_EDGE ( 'NONE', *, *, #61, .T. ) ;
ENDSEC;
END-ISO-10303-21;
