ISO-10303-21;
HEADER;
FILE_DESCRIPTION (( 'STEP AP203' ),
    '1' );
FILE_NAME ('010-1125E_UVFS_PCV_window.STEP',
    '2021-02-25T08:36:22',
    ( '' ),
    ( '' ),
    'SwSTEP 2.0',
    'SolidWorks 2019',
    '' );
FILE_SCHEMA (( 'CONFIG_CONTROL_DESIGN' ));
ENDSEC;

DATA;
#1 = CC_DESIGN_DATE_AND_TIME_ASSIGNMENT ( #120, #30, ( #76 ) ) ;
#2 = CARTESIAN_POINT ( 'NONE',  ( 2.463307335887066074E-13, 0.000000000000000000, 2002.989919349595084 ) ) ;
#3 = CIRCLE ( 'NONE', #20, 6.349999999988691357 ) ;
#4 = EDGE_CURVE ( 'NONE', #99, #42, #194, .T. ) ;
#5 = COORDINATED_UNIVERSAL_TIME_OFFSET ( 2, 0, .AHEAD. ) ;
#6 = LOCAL_TIME ( 10, 36, 22.00000000000000000, #68 ) ;
#7 = APPLICATION_CONTEXT ( 'configuration controlled 3d designs of mechanical parts and assemblies' ) ;
#8 = CIRCLE ( 'NONE', #149, 6.349999999988691357 ) ;
#9 = DIRECTION ( 'NONE',  ( -0.000000000000000000, -0.000000000000000000, -1.000000000000000000 ) ) ;
#10 = PERSON_AND_ORGANIZATION_ROLE ( 'design_owner' ) ;
#11 = CC_DESIGN_PERSON_AND_ORGANIZATION_ASSIGNMENT ( #79, #40, ( #164 ) ) ;
#12 = DIRECTION ( 'NONE',  ( -0.000000000000000000, -0.000000000000000000, -1.000000000000000000 ) ) ;
#13 = DATE_TIME_ROLE ( 'classification_date' ) ;
#14 = CARTESIAN_POINT ( 'NONE',  ( 0.000000000000000000, 0.000000000000000000, 0.000000000000000000 ) ) ;
#15 = ORIENTED_EDGE ( 'NONE', *, *, #151, .F. ) ;
#16 = DIRECTION ( 'NONE',  ( 1.000000000000000000, 0.000000000000000000, 0.000000000000000000 ) ) ;
#17 = CC_DESIGN_APPROVAL ( #45, ( #76 ) ) ;
#18 = DATE_AND_TIME ( #92, #6 ) ;
#19 = ADVANCED_FACE ( 'NONE', ( #107 ), #56, .F. ) ;
#20 = AXIS2_PLACEMENT_3D ( 'NONE', #86, #185, #199 ) ;
#21 = APPLICATION_CONTEXT ( 'configuration controlled 3d designs of mechanical parts and assemblies' ) ;
#22 = CALENDAR_DATE ( 2021, 25, 2 ) ;
#23 = ADVANCED_FACE ( 'NONE', ( #163 ), #150, .T. ) ;
#24 = ORIENTED_EDGE ( 'NONE', *, *, #85, .F. ) ;
#25 = DIRECTION ( 'NONE',  ( 1.000000000000000000, 0.000000000000000000, 0.000000000000000000 ) ) ;
#26 = DIRECTION ( 'NONE',  ( -0.000000000000000000, -0.000000000000000000, -1.000000000000000000 ) ) ;
#27 = CIRCLE ( 'NONE', #89, 6.349999999999999645 ) ;
#28 = DIRECTION ( 'NONE',  ( 1.000000000000000000, 0.000000000000000000, 0.000000000000000000 ) ) ;
#29 = DIRECTION ( 'NONE',  ( 0.000000000000000000, 0.000000000000000000, 1.000000000000000000 ) ) ;
#30 = DATE_TIME_ROLE ( 'creation_date' ) ;
#31 = VECTOR ( 'NONE', #39, 1000.000000000000000 ) ;
#32 = PERSON_AND_ORGANIZATION ( #170, #58 ) ;
#33 = EDGE_CURVE ( 'NONE', #180, #80, #64, .T. ) ;
#34 = APPROVAL_PERSON_ORGANIZATION ( #95, #168, #192 ) ;
#35 = ADVANCED_BREP_SHAPE_REPRESENTATION ( '010-1125E_UVFS_PCV_window', ( #87, #81 ), #94 ) ;
#36 = PERSON_AND_ORGANIZATION ( #170, #58 ) ;
#37 = ORIENTED_EDGE ( 'NONE', *, *, #85, .T. ) ;
#38 = PRODUCT_DEFINITION_FORMATION_WITH_SPECIFIED_SOURCE ( 'ANY', '', #126, .NOT_KNOWN. ) ;
#39 = DIRECTION ( 'NONE',  ( -0.000000000000000000, -0.000000000000000000, -1.000000000000000000 ) ) ;
#40 = PERSON_AND_ORGANIZATION_ROLE ( 'classification_officer' ) ;
#41 = CARTESIAN_POINT ( 'NONE',  ( 2.463307335887066074E-13, 0.000000000000000000, 2002.989919349595084 ) ) ;
#42 = VERTEX_POINT ( 'NONE', #196 ) ;
#43 = DIRECTION ( 'NONE',  ( 0.000000000000000000, 0.000000000000000000, 1.000000000000000000 ) ) ;
#44 = AXIS2_PLACEMENT_3D ( 'NONE', #167, #12, #160 ) ;
#45 = APPROVAL ( #191, 'UNSPECIFIED' ) ;
#46 = APPROVAL_DATE_TIME ( #18, #132 ) ;
#47 =( LENGTH_UNIT ( ) NAMED_UNIT ( * ) SI_UNIT ( .MILLI., .METRE. ) );
#48 = DATE_AND_TIME ( #49, #77 ) ;
#49 = CALENDAR_DATE ( 2021, 25, 2 ) ;
#50 = ORIENTED_EDGE ( 'NONE', *, *, #4, .T. ) ;
#51 = CALENDAR_DATE ( 2021, 25, 2 ) ;
#52 = ORIENTED_EDGE ( 'NONE', *, *, #172, .T. ) ;
#53 = FACE_OUTER_BOUND ( 'NONE', #143, .T. ) ;
#54 = ORIENTED_EDGE ( 'NONE', *, *, #4, .F. ) ;
#55 = CC_DESIGN_PERSON_AND_ORGANIZATION_ASSIGNMENT ( #71, #10, ( #126 ) ) ;
#56 = SPHERICAL_SURFACE ( 'NONE', #96, 2000.000000000000000 ) ;
#57 = ORIENTED_EDGE ( 'NONE', *, *, #112, .T. ) ;
#58 = ORGANIZATION ( 'UNSPECIFIED', 'UNSPECIFIED', '' ) ;
#59 = CARTESIAN_POINT ( 'NONE',  ( 6.349999999988937383, 7.776507174578918806E-16, 2.999999999999891642 ) ) ;
#60 = VECTOR ( 'NONE', #153, 1000.000000000000000 ) ;
#61 = PERSON_AND_ORGANIZATION_ROLE ( 'creator' ) ;
#62 = ORIENTED_EDGE ( 'NONE', *, *, #159, .F. ) ;
#63 = EDGE_LOOP ( 'NONE', ( #57, #115, #122, #15 ) ) ;
#64 = CIRCLE ( 'NONE', #108, 6.349999999999999645 ) ;
#65 = CARTESIAN_POINT ( 'NONE',  ( 2.463307335887066074E-13, 0.000000000000000000, 2002.989919349595084 ) ) ;
#66 = PERSON_AND_ORGANIZATION ( #170, #58 ) ;
#67 = CARTESIAN_POINT ( 'NONE',  ( 2.463307335887066074E-13, 0.000000000000000000, 2.999999999999891642 ) ) ;
#68 = COORDINATED_UNIVERSAL_TIME_OFFSET ( 2, 0, .AHEAD. ) ;
#69 = LINE ( 'NONE', #137, #31 ) ;
#70 = DIRECTION ( 'NONE',  ( 0.000000000000000000, 0.000000000000000000, 1.000000000000000000 ) ) ;
#71 = PERSON_AND_ORGANIZATION ( #170, #58 ) ;
#72 = CARTESIAN_POINT ( 'NONE',  ( 6.349999999999999645, 7.776507174585692163E-16, 3.000000000000000000 ) ) ;
#73 = DIRECTION ( 'NONE',  ( 1.000000000000000000, 0.000000000000000000, 0.000000000000000000 ) ) ;
#74 = CC_DESIGN_DATE_AND_TIME_ASSIGNMENT ( #84, #13, ( #164 ) ) ;
#75 = CARTESIAN_POINT ( 'NONE',  ( 0.000000000000000000, 0.000000000000000000, 0.000000000000000000 ) ) ;
#76 = PRODUCT_DEFINITION ( 'UNKNOWN', '', #38, #154 ) ;
#77 = LOCAL_TIME ( 10, 36, 22.00000000000000000, #179 ) ;
#78 = APPLICATION_PROTOCOL_DEFINITION ( 'international standard', 'config_control_design', 1994, #21 ) ;
#79 = PERSON_AND_ORGANIZATION ( #170, #58 ) ;
#80 = VERTEX_POINT ( 'NONE', #183 ) ;
#81 = AXIS2_PLACEMENT_3D ( 'NONE', #75, #142, #28 ) ;
#82 = CYLINDRICAL_SURFACE ( 'NONE', #117, 6.349999999999999645 ) ;
#83 = DIRECTION ( 'NONE',  ( 1.000000000000000000, 0.000000000000000000, 0.000000000000000000 ) ) ;
#84 = DATE_AND_TIME ( #161, #152 ) ;
#85 = EDGE_CURVE ( 'NONE', #193, #99, #3, .T. ) ;
#86 = CARTESIAN_POINT ( 'NONE',  ( 2.463307335887066074E-13, 0.000000000000000000, 2.999999999999891642 ) ) ;
#87 = MANIFOLD_SOLID_BREP ( 'Cut-Revolve1', #131 ) ;
#88 = DIRECTION ( 'NONE',  ( -1.000000000000000000, 0.000000000000000000, 0.000000000000000000 ) ) ;
#89 = AXIS2_PLACEMENT_3D ( 'NONE', #139, #201, #73 ) ;
#90 = CARTESIAN_POINT ( 'NONE',  ( 0.000000000000000000, 0.000000000000000000, 0.000000000000000000 ) ) ;
#91 = ADVANCED_FACE ( 'NONE', ( #53 ), #177, .F. ) ;
#92 = CALENDAR_DATE ( 2021, 25, 2 ) ;
#93 = DIRECTION ( 'NONE',  ( 0.000000000000000000, 1.000000000000000000, -0.000000000000000000 ) ) ;
#94 =( GEOMETRIC_REPRESENTATION_CONTEXT ( 3 ) GLOBAL_UNCERTAINTY_ASSIGNED_CONTEXT ( ( #124 ) ) GLOBAL_UNIT_ASSIGNED_CONTEXT ( ( #47, #127, #190 ) ) REPRESENTATION_CONTEXT ( 'NONE', 'WORKASPACE' ) );
#95 = PERSON_AND_ORGANIZATION ( #170, #58 ) ;
#96 = AXIS2_PLACEMENT_3D ( 'NONE', #162, #118, #25 ) ;
#97 = ADVANCED_FACE ( 'NONE', ( #104 ), #146, .F. ) ;
#98 = APPROVAL_ROLE ( '' ) ;
#99 = VERTEX_POINT ( 'NONE', #197 ) ;
#100 = PERSON_AND_ORGANIZATION_ROLE ( 'design_supplier' ) ;
#101 = CC_DESIGN_PERSON_AND_ORGANIZATION_ASSIGNMENT ( #174, #61, ( #76 ) ) ;
#102 = DIRECTION ( 'NONE',  ( 1.224646799147353207E-16, -1.000000000000000000, 0.000000000000000000 ) ) ;
#103 = COORDINATED_UNIVERSAL_TIME_OFFSET ( 2, 0, .AHEAD. ) ;
#104 = FACE_OUTER_BOUND ( 'NONE', #130, .T. ) ;
#105 = ORIENTED_EDGE ( 'NONE', *, *, #112, .F. ) ;
#106 = CC_DESIGN_SECURITY_CLASSIFICATION ( #164, ( #38 ) ) ;
#107 = FACE_OUTER_BOUND ( 'NONE', #195, .T. ) ;
#108 = AXIS2_PLACEMENT_3D ( 'NONE', #90, #70, #83 ) ;
#109 = ORIENTED_EDGE ( 'NONE', *, *, #181, .F. ) ;
#110 = CARTESIAN_POINT ( 'NONE',  ( 6.349999999999999645, 7.776507174585692163E-16, 0.000000000000000000 ) ) ;
#111 = PRODUCT_DEFINITION_SHAPE ( 'NONE', 'NONE',  #76 ) ;
#112 = EDGE_CURVE ( 'NONE', #99, #193, #8, .T. ) ;
#113 = APPROVAL_DATE_TIME ( #48, #168 ) ;
#114 = DATE_AND_TIME ( #51, #140 ) ;
#115 = ORIENTED_EDGE ( 'NONE', *, *, #159, .T. ) ;
#116 = CC_DESIGN_PERSON_AND_ORGANIZATION_ASSIGNMENT ( #32, #100, ( #38 ) ) ;
#117 = AXIS2_PLACEMENT_3D ( 'NONE', #138, #9, #88 ) ;
#118 = DIRECTION ( 'NONE',  ( 0.000000000000000000, -1.000000000000000000, -0.000000000000000000 ) ) ;
#119 = ADVANCED_FACE ( 'NONE', ( #145 ), #82, .T. ) ;
#120 = DATE_AND_TIME ( #22, #134 ) ;
#121 = CC_DESIGN_APPROVAL ( #132, ( #164 ) ) ;
#122 = ORIENTED_EDGE ( 'NONE', *, *, #33, .T. ) ;
#123 = DIRECTION ( 'NONE',  ( 1.000000000000000000, 0.000000000000000000, 0.000000000000000000 ) ) ;
#124 = UNCERTAINTY_MEASURE_WITH_UNIT (LENGTH_MEASURE( 1.000000000000000082E-05 ), #47, 'distance_accuracy_value', 'NONE');
#125 = DIRECTION ( 'NONE',  ( 1.000000000000000000, 1.224646799147353207E-16, 0.000000000000000000 ) ) ;
#126 = PRODUCT ( '010-1125E_UVFS_PCV_window', '010-1125E_UVFS_PCV_window', '', ( #188 ) ) ;
#127 =( NAMED_UNIT ( * ) PLANE_ANGLE_UNIT ( ) SI_UNIT ( $, .RADIAN. ) );
#128 = COORDINATED_UNIVERSAL_TIME_OFFSET ( 2, 0, .AHEAD. ) ;
#129 = ORIENTED_EDGE ( 'NONE', *, *, #33, .F. ) ;
#130 = EDGE_LOOP ( 'NONE', ( #136, #129 ) ) ;
#131 = CLOSED_SHELL ( 'NONE', ( #91, #23, #119, #97, #19 ) ) ;
#132 = APPROVAL ( #135, 'UNSPECIFIED' ) ;
#133 = DIRECTION ( 'NONE',  ( 0.000000000000000000, -1.000000000000000000, -0.000000000000000000 ) ) ;
#134 = LOCAL_TIME ( 10, 36, 22.00000000000000000, #128 ) ;
#135 = APPROVAL_STATUS ( 'not_yet_approved' ) ;
#136 = ORIENTED_EDGE ( 'NONE', *, *, #172, .F. ) ;
#137 = CARTESIAN_POINT ( 'NONE',  ( -6.349999999999999645, 0.000000000000000000, 3.000000000000000000 ) ) ;
#138 = CARTESIAN_POINT ( 'NONE',  ( 0.000000000000000000, 0.000000000000000000, 3.000000000000000000 ) ) ;
#139 = CARTESIAN_POINT ( 'NONE',  ( 0.000000000000000000, 0.000000000000000000, 0.000000000000000000 ) ) ;
#140 = LOCAL_TIME ( 10, 36, 22.00000000000000000, #5 ) ;
#141 = CIRCLE ( 'NONE', #166, 2000.000000000000000 ) ;
#142 = DIRECTION ( 'NONE',  ( 0.000000000000000000, 0.000000000000000000, 1.000000000000000000 ) ) ;
#143 = EDGE_LOOP ( 'NONE', ( #105, #50, #109 ) ) ;
#144 = APPROVAL_PERSON_ORGANIZATION ( #171, #45, #98 ) ;
#145 = FACE_OUTER_BOUND ( 'NONE', #176, .T. ) ;
#146 = PLANE ( 'NONE',  #175 ) ;
#147 = CC_DESIGN_APPROVAL ( #168, ( #38 ) ) ;
#148 = ORIENTED_EDGE ( 'NONE', *, *, #181, .T. ) ;
#149 = AXIS2_PLACEMENT_3D ( 'NONE', #67, #26, #16 ) ;
#150 = CYLINDRICAL_SURFACE ( 'NONE', #44, 6.349999999999999645 ) ;
#151 = EDGE_CURVE ( 'NONE', #99, #80, #69, .T. ) ;
#152 = LOCAL_TIME ( 10, 36, 22.00000000000000000, #103 ) ;
#153 = DIRECTION ( 'NONE',  ( -0.000000000000000000, -0.000000000000000000, -1.000000000000000000 ) ) ;
#154 = DESIGN_CONTEXT ( 'detailed design', #21, 'design' ) ;
#155 = AXIS2_PLACEMENT_3D ( 'NONE', #65, #133, #123 ) ;
#156 = APPROVAL_STATUS ( 'not_yet_approved' ) ;
#157 = APPROVAL_DATE_TIME ( #114, #45 ) ;
#158 = SECURITY_CLASSIFICATION_LEVEL ( 'unclassified' ) ;
#159 = EDGE_CURVE ( 'NONE', #193, #180, #169, .T. ) ;
#160 = DIRECTION ( 'NONE',  ( -1.000000000000000000, 0.000000000000000000, 0.000000000000000000 ) ) ;
#161 = CALENDAR_DATE ( 2021, 25, 2 ) ;
#162 = CARTESIAN_POINT ( 'NONE',  ( 2.463307335887066074E-13, 0.000000000000000000, 2002.989919349595084 ) ) ;
#163 = FACE_OUTER_BOUND ( 'NONE', #63, .T. ) ;
#164 = SECURITY_CLASSIFICATION ( '', '', #158 ) ;
#165 = DIRECTION ( 'NONE',  ( 1.000000000000000000, 0.000000000000000000, -0.000000000000000000 ) ) ;
#166 = AXIS2_PLACEMENT_3D ( 'NONE', #2, #93, #29 ) ;
#167 = CARTESIAN_POINT ( 'NONE',  ( 0.000000000000000000, 0.000000000000000000, 3.000000000000000000 ) ) ;
#168 = APPROVAL ( #156, 'UNSPECIFIED' ) ;
#169 = LINE ( 'NONE', #72, #60 ) ;
#170 = PERSON ( 'UNSPECIFIED', 'UNSPECIFIED', 'UNSPECIFIED', ('UNSPECIFIED'), ('UNSPECIFIED'), ('UNSPECIFIED') ) ;
#171 = PERSON_AND_ORGANIZATION ( #170, #58 ) ;
#172 = EDGE_CURVE ( 'NONE', #80, #180, #27, .T. ) ;
#173 = PERSON_AND_ORGANIZATION_ROLE ( 'creator' ) ;
#174 = PERSON_AND_ORGANIZATION ( #170, #58 ) ;
#175 = AXIS2_PLACEMENT_3D ( 'NONE', #14, #43, #165 ) ;
#176 = EDGE_LOOP ( 'NONE', ( #62, #37, #198, #52 ) ) ;
#177 = SPHERICAL_SURFACE ( 'NONE', #155, 2000.000000000000000 ) ;
#178 = APPROVAL_PERSON_ORGANIZATION ( #66, #132, #182 ) ;
#179 = COORDINATED_UNIVERSAL_TIME_OFFSET ( 2, 0, .AHEAD. ) ;
#180 = VERTEX_POINT ( 'NONE', #110 ) ;
#181 = EDGE_CURVE ( 'NONE', #193, #42, #141, .T. ) ;
#182 = APPROVAL_ROLE ( '' ) ;
#183 = CARTESIAN_POINT ( 'NONE',  ( -6.349999999999999645, 0.000000000000000000, 0.000000000000000000 ) ) ;
#184 = CC_DESIGN_PERSON_AND_ORGANIZATION_ASSIGNMENT ( #36, #173, ( #38 ) ) ;
#185 = DIRECTION ( 'NONE',  ( -0.000000000000000000, -0.000000000000000000, -1.000000000000000000 ) ) ;
#186 = SHAPE_DEFINITION_REPRESENTATION ( #111, #35 ) ;
#187 = AXIS2_PLACEMENT_3D ( 'NONE', #41, #102, #125 ) ;
#188 = MECHANICAL_CONTEXT ( 'NONE', #7, 'mechanical' ) ;
#189 = PRODUCT_RELATED_PRODUCT_CATEGORY ( 'detail', '', ( #126 ) ) ;
#190 =( NAMED_UNIT ( * ) SI_UNIT ( $, .STERADIAN. ) SOLID_ANGLE_UNIT ( ) );
#191 = APPROVAL_STATUS ( 'not_yet_approved' ) ;
#192 = APPROVAL_ROLE ( '' ) ;
#193 = VERTEX_POINT ( 'NONE', #59 ) ;
#194 = CIRCLE ( 'NONE', #187, 2000.000000000000000 ) ;
#195 = EDGE_LOOP ( 'NONE', ( #54, #24, #148 ) ) ;
#196 = CARTESIAN_POINT ( 'NONE',  ( 3.687954135034419575E-13, 0.000000000000000000, 2.989919349595027143 ) ) ;
#197 = CARTESIAN_POINT ( 'NONE',  ( -6.349999999988444443, 0.000000000000000000, 2.999999999999891642 ) ) ;
#198 = ORIENTED_EDGE ( 'NONE', *, *, #151, .T. ) ;
#199 = DIRECTION ( 'NONE',  ( 1.000000000000000000, 0.000000000000000000, 0.000000000000000000 ) ) ;
#200 = APPLICATION_PROTOCOL_DEFINITION ( 'international standard', 'config_control_design', 1994, #7 ) ;
#201 = DIRECTION ( 'NONE',  ( 0.000000000000000000, 0.000000000000000000, 1.000000000000000000 ) ) ;
ENDSEC;
END-ISO-10303-21;
