ISO-10303-21;
HEADER;
FILE_DESCRIPTION (( 'STEP AP203' ),
    '1' );
FILE_NAME ('010-1123T6_UVFS_PCV_window.STEP',
    '2021-02-25T10:38:33',
    ( '' ),
    ( '' ),
    'SwSTEP 2.0',
    'SolidWorks 2019',
    '' );
FILE_SCHEMA (( 'CONFIG_CONTROL_DESIGN' ));
ENDSEC;

DATA;
#1 = FACE_OUTER_BOUND ( 'NONE', #65, .T. ) ;
#2 = ORIENTED_EDGE ( 'NONE', *, *, #160, .T. ) ;
#3 = DIRECTION ( 'NONE',  ( 0.000000000000000000, 0.000000000000000000, 1.000000000000000000 ) ) ;
#4 = CC_DESIGN_APPROVAL ( #123, ( #42 ) ) ;
#5 = CARTESIAN_POINT ( 'NONE',  ( -6.349999999999999645, 0.000000000000000000, 0.000000000000000000 ) ) ;
#6 = CIRCLE ( 'NONE', #21, 1500.000000000000000 ) ;
#7 = CARTESIAN_POINT ( 'NONE',  ( 1.856154119295183591E-13, 0.000000000000000000, 6.000000000000005329 ) ) ;
#8 = APPROVAL ( #92, 'UNSPECIFIED' ) ;
#9 = DIRECTION ( 'NONE',  ( 0.000000000000000000, 0.000000000000000000, 1.000000000000000000 ) ) ;
#10 = DIRECTION ( 'NONE',  ( 0.000000000000000000, 0.000000000000000000, 1.000000000000000000 ) ) ;
#11 = SPHERICAL_SURFACE ( 'NONE', #46, 1500.000000000000000 ) ;
#12 = SECURITY_CLASSIFICATION ( '', '', #27 ) ;
#13 = COORDINATED_UNIVERSAL_TIME_OFFSET ( 2, 0, .AHEAD. ) ;
#14 = PERSON_AND_ORGANIZATION ( #64, #153 ) ;
#15 = CARTESIAN_POINT ( 'NONE',  ( 0.000000000000000000, 0.000000000000000000, 0.000000000000000000 ) ) ;
#16 = AXIS2_PLACEMENT_3D ( 'NONE', #15, #3, #188 ) ;
#17 = EDGE_LOOP ( 'NONE', ( #101, #172, #156 ) ) ;
#18 = AXIS2_PLACEMENT_3D ( 'NONE', #7, #132, #129 ) ;
#19 = ORIENTED_EDGE ( 'NONE', *, *, #192, .T. ) ;
#20 = APPLICATION_CONTEXT ( 'configuration controlled 3d designs of mechanical parts and assemblies' ) ;
#21 = AXIS2_PLACEMENT_3D ( 'NONE', #147, #83, #10 ) ;
#22 = CC_DESIGN_PERSON_AND_ORGANIZATION_ASSIGNMENT ( #182, #139, ( #12 ) ) ;
#23 = FACE_OUTER_BOUND ( 'NONE', #127, .T. ) ;
#24 = AXIS2_PLACEMENT_3D ( 'NONE', #159, #137, #178 ) ;
#25 = PRODUCT_DEFINITION ( 'UNKNOWN', '', #42, #103 ) ;
#26 = APPROVAL_STATUS ( 'not_yet_approved' ) ;
#27 = SECURITY_CLASSIFICATION_LEVEL ( 'unclassified' ) ;
#28 = ORIENTED_EDGE ( 'NONE', *, *, #133, .F. ) ;
#29 = CIRCLE ( 'NONE', #200, 1500.000000000000000 ) ;
#30 = DIRECTION ( 'NONE',  ( -1.000000000000000000, 0.000000000000000000, 0.000000000000000000 ) ) ;
#31 = ORIENTED_EDGE ( 'NONE', *, *, #136, .T. ) ;
#32 = AXIS2_PLACEMENT_3D ( 'NONE', #44, #173, #30 ) ;
#33 =( NAMED_UNIT ( * ) PLANE_ANGLE_UNIT ( ) SI_UNIT ( $, .RADIAN. ) );
#34 = APPROVAL_PERSON_ORGANIZATION ( #111, #123, #125 ) ;
#35 = FACE_OUTER_BOUND ( 'NONE', #17, .T. ) ;
#36 = DIRECTION ( 'NONE',  ( 1.000000000000000000, 1.224646799147353207E-16, 0.000000000000000000 ) ) ;
#37 = DATE_AND_TIME ( #112, #114 ) ;
#38 = EDGE_CURVE ( 'NONE', #62, #61, #100, .T. ) ;
#39 = DATE_AND_TIME ( #187, #54 ) ;
#40 = ORIENTED_EDGE ( 'NONE', *, *, #113, .T. ) ;
#41 = ORIENTED_EDGE ( 'NONE', *, *, #38, .F. ) ;
#42 = PRODUCT_DEFINITION_FORMATION_WITH_SPECIFIED_SOURCE ( 'ANY', '', #120, .NOT_KNOWN. ) ;
#43 = PRODUCT_RELATED_PRODUCT_CATEGORY ( 'detail', '', ( #120 ) ) ;
#44 = CARTESIAN_POINT ( 'NONE',  ( 0.000000000000000000, 0.000000000000000000, 6.000000000000000000 ) ) ;
#45 = FACE_OUTER_BOUND ( 'NONE', #93, .T. ) ;
#46 = AXIS2_PLACEMENT_3D ( 'NONE', #52, #105, #67 ) ;
#47 = DIRECTION ( 'NONE',  ( 1.000000000000000000, 0.000000000000000000, 0.000000000000000000 ) ) ;
#48 = CARTESIAN_POINT ( 'NONE',  ( 6.349999999999999645, 7.776507174585692163E-16, 0.000000000000000000 ) ) ;
#49 = CARTESIAN_POINT ( 'NONE',  ( 6.349999999999999645, 7.776507174585692163E-16, 6.000000000000000000 ) ) ;
#50 = CARTESIAN_POINT ( 'NONE',  ( 0.000000000000000000, 0.000000000000000000, 0.000000000000000000 ) ) ;
#51 =( GEOMETRIC_REPRESENTATION_CONTEXT ( 3 ) GLOBAL_UNCERTAINTY_ASSIGNED_CONTEXT ( ( #66 ) ) GLOBAL_UNIT_ASSIGNED_CONTEXT ( ( #71, #33, #104 ) ) REPRESENTATION_CONTEXT ( 'NONE', 'WORKASPACE' ) );
#52 = CARTESIAN_POINT ( 'NONE',  ( 1.856154119295183591E-13, 0.000000000000000000, 1505.986559106447430 ) ) ;
#53 = DATE_TIME_ROLE ( 'creation_date' ) ;
#54 = LOCAL_TIME ( 12, 38, 33.00000000000000000, #184 ) ;
#55 = ADVANCED_FACE ( 'NONE', ( #1 ), #96, .T. ) ;
#56 = APPROVAL_DATE_TIME ( #37, #8 ) ;
#57 = COORDINATED_UNIVERSAL_TIME_OFFSET ( 2, 0, .AHEAD. ) ;
#58 = ADVANCED_FACE ( 'NONE', ( #99 ), #157, .F. ) ;
#59 = LOCAL_TIME ( 12, 38, 33.00000000000000000, #13 ) ;
#60 = DATE_AND_TIME ( #121, #122 ) ;
#61 = VERTEX_POINT ( 'NONE', #5 ) ;
#62 = VERTEX_POINT ( 'NONE', #48 ) ;
#63 = CC_DESIGN_PERSON_AND_ORGANIZATION_ASSIGNMENT ( #195, #196, ( #25 ) ) ;
#64 = PERSON ( 'UNSPECIFIED', 'UNSPECIFIED', 'UNSPECIFIED', ('UNSPECIFIED'), ('UNSPECIFIED'), ('UNSPECIFIED') ) ;
#65 = EDGE_LOOP ( 'NONE', ( #40, #151, #128, #154 ) ) ;
#66 = UNCERTAINTY_MEASURE_WITH_UNIT (LENGTH_MEASURE( 1.000000000000000082E-05 ), #71, 'distance_accuracy_value', 'NONE');
#67 = DIRECTION ( 'NONE',  ( 1.000000000000000000, 0.000000000000000000, 0.000000000000000000 ) ) ;
#68 = DIRECTION ( 'NONE',  ( 1.000000000000000000, 0.000000000000000000, 0.000000000000000000 ) ) ;
#69 = CC_DESIGN_DATE_AND_TIME_ASSIGNMENT ( #39, #152, ( #12 ) ) ;
#70 = CC_DESIGN_APPROVAL ( #8, ( #12 ) ) ;
#71 =( LENGTH_UNIT ( ) NAMED_UNIT ( * ) SI_UNIT ( .MILLI., .METRE. ) );
#72 = PERSON_AND_ORGANIZATION_ROLE ( 'design_owner' ) ;
#73 = APPROVAL ( #183, 'UNSPECIFIED' ) ;
#74 = PERSON_AND_ORGANIZATION ( #64, #153 ) ;
#75 = CIRCLE ( 'NONE', #18, 6.350000000023658941 ) ;
#76 = CALENDAR_DATE ( 2021, 25, 2 ) ;
#77 = CC_DESIGN_PERSON_AND_ORGANIZATION_ASSIGNMENT ( #74, #78, ( #42 ) ) ;
#78 = PERSON_AND_ORGANIZATION_ROLE ( 'design_supplier' ) ;
#79 = CLOSED_SHELL ( 'NONE', ( #145, #55, #106, #58, #179 ) ) ;
#80 = VERTEX_POINT ( 'NONE', #130 ) ;
#81 = VERTEX_POINT ( 'NONE', #119 ) ;
#82 = LOCAL_TIME ( 12, 38, 33.00000000000000000, #57 ) ;
#83 = DIRECTION ( 'NONE',  ( 0.000000000000000000, 1.000000000000000000, -0.000000000000000000 ) ) ;
#84 = DIRECTION ( 'NONE',  ( 1.000000000000000000, 0.000000000000000000, -0.000000000000000000 ) ) ;
#85 = DIRECTION ( 'NONE',  ( -0.000000000000000000, -0.000000000000000000, -1.000000000000000000 ) ) ;
#86 = APPROVAL_PERSON_ORGANIZATION ( #110, #8, #124 ) ;
#87 = DIRECTION ( 'NONE',  ( 1.224646799147353207E-16, -1.000000000000000000, 0.000000000000000000 ) ) ;
#88 = SPHERICAL_SURFACE ( 'NONE', #95, 1500.000000000000000 ) ;
#89 = DIRECTION ( 'NONE',  ( -0.000000000000000000, -0.000000000000000000, -1.000000000000000000 ) ) ;
#90 = VECTOR ( 'NONE', #89, 1000.000000000000000 ) ;
#91 = CIRCLE ( 'NONE', #170, 6.350000000023658941 ) ;
#92 = APPROVAL_STATUS ( 'not_yet_approved' ) ;
#93 = EDGE_LOOP ( 'NONE', ( #28, #174, #2, #19 ) ) ;
#94 = PERSON_AND_ORGANIZATION ( #64, #153 ) ;
#95 = AXIS2_PLACEMENT_3D ( 'NONE', #180, #181, #194 ) ;
#96 = CYLINDRICAL_SURFACE ( 'NONE', #32, 6.349999999999999645 ) ;
#97 = CC_DESIGN_DATE_AND_TIME_ASSIGNMENT ( #168, #53, ( #25 ) ) ;
#98 = ORIENTED_EDGE ( 'NONE', *, *, #192, .F. ) ;
#99 = FACE_OUTER_BOUND ( 'NONE', #126, .T. ) ;
#100 = CIRCLE ( 'NONE', #16, 6.349999999999999645 ) ;
#101 = ORIENTED_EDGE ( 'NONE', *, *, #136, .F. ) ;
#102 = EDGE_CURVE ( 'NONE', #80, #81, #75, .T. ) ;
#103 = DESIGN_CONTEXT ( 'detailed design', #171, 'design' ) ;
#104 =( NAMED_UNIT ( * ) SI_UNIT ( $, .STERADIAN. ) SOLID_ANGLE_UNIT ( ) );
#105 = DIRECTION ( 'NONE',  ( 0.000000000000000000, -1.000000000000000000, -0.000000000000000000 ) ) ;
#106 = ADVANCED_FACE ( 'NONE', ( #45 ), #176, .T. ) ;
#107 = AXIS2_PLACEMENT_3D ( 'NONE', #199, #186, #84 ) ;
#108 = DATE_AND_TIME ( #76, #59 ) ;
#109 = ADVANCED_BREP_SHAPE_REPRESENTATION ( '010-1123T6_UVFS_PCV_window', ( #142, #148 ), #51 ) ;
#110 = PERSON_AND_ORGANIZATION ( #64, #153 ) ;
#111 = PERSON_AND_ORGANIZATION ( #64, #153 ) ;
#112 = CALENDAR_DATE ( 2021, 25, 2 ) ;
#113 = EDGE_CURVE ( 'NONE', #81, #80, #91, .T. ) ;
#114 = LOCAL_TIME ( 12, 38, 33.00000000000000000, #185 ) ;
#115 = ORIENTED_EDGE ( 'NONE', *, *, #113, .F. ) ;
#116 = CC_DESIGN_PERSON_AND_ORGANIZATION_ASSIGNMENT ( #14, #165, ( #42 ) ) ;
#117 = VECTOR ( 'NONE', #85, 1000.000000000000000 ) ;
#118 = DIRECTION ( 'NONE',  ( 1.000000000000000000, 0.000000000000000000, 0.000000000000000000 ) ) ;
#119 = CARTESIAN_POINT ( 'NONE',  ( -6.350000000023473312, 0.000000000000000000, 6.000000000000005329 ) ) ;
#120 = PRODUCT ( '010-1123T6_UVFS_PCV_window', '010-1123T6_UVFS_PCV_window', '', ( #162 ) ) ;
#121 = CALENDAR_DATE ( 2021, 25, 2 ) ;
#122 = LOCAL_TIME ( 12, 38, 33.00000000000000000, #201 ) ;
#123 = APPROVAL ( #26, 'UNSPECIFIED' ) ;
#124 = APPROVAL_ROLE ( '' ) ;
#125 = APPROVAL_ROLE ( '' ) ;
#126 = EDGE_LOOP ( 'NONE', ( #98, #41 ) ) ;
#127 = EDGE_LOOP ( 'NONE', ( #115, #31, #143 ) ) ;
#128 = ORIENTED_EDGE ( 'NONE', *, *, #38, .T. ) ;
#129 = DIRECTION ( 'NONE',  ( 1.000000000000000000, 0.000000000000000000, 0.000000000000000000 ) ) ;
#130 = CARTESIAN_POINT ( 'NONE',  ( 6.350000000023844571, 7.776507174614893822E-16, 6.000000000000005329 ) ) ;
#131 = CARTESIAN_POINT ( 'NONE',  ( -6.349999999999999645, 0.000000000000000000, 6.000000000000000000 ) ) ;
#132 = DIRECTION ( 'NONE',  ( -0.000000000000000000, -0.000000000000000000, -1.000000000000000000 ) ) ;
#133 = EDGE_CURVE ( 'NONE', #80, #62, #135, .T. ) ;
#134 = CARTESIAN_POINT ( 'NONE',  ( 1.856154119295183591E-13, 0.000000000000000000, 1505.986559106447430 ) ) ;
#135 = LINE ( 'NONE', #49, #90 ) ;
#136 = EDGE_CURVE ( 'NONE', #81, #169, #29, .T. ) ;
#137 = DIRECTION ( 'NONE',  ( -0.000000000000000000, -0.000000000000000000, -1.000000000000000000 ) ) ;
#138 = CALENDAR_DATE ( 2021, 25, 2 ) ;
#139 = PERSON_AND_ORGANIZATION_ROLE ( 'classification_officer' ) ;
#140 = APPROVAL_DATE_TIME ( #108, #123 ) ;
#141 = PERSON_AND_ORGANIZATION ( #64, #153 ) ;
#142 = MANIFOLD_SOLID_BREP ( 'Cut-Revolve1', #79 ) ;
#143 = ORIENTED_EDGE ( 'NONE', *, *, #155, .F. ) ;
#144 = CARTESIAN_POINT ( 'NONE',  ( 2.774639218655698212E-13, 0.000000000000000000, 5.986559106447408851 ) ) ;
#145 = ADVANCED_FACE ( 'NONE', ( #23 ), #88, .F. ) ;
#146 = AXIS2_PLACEMENT_3D ( 'NONE', #163, #149, #118 ) ;
#147 = CARTESIAN_POINT ( 'NONE',  ( 1.856154119295183591E-13, 0.000000000000000000, 1505.986559106447430 ) ) ;
#148 = AXIS2_PLACEMENT_3D ( 'NONE', #50, #9, #68 ) ;
#149 = DIRECTION ( 'NONE',  ( 0.000000000000000000, 0.000000000000000000, 1.000000000000000000 ) ) ;
#150 = APPROVAL_ROLE ( '' ) ;
#151 = ORIENTED_EDGE ( 'NONE', *, *, #133, .T. ) ;
#152 = DATE_TIME_ROLE ( 'classification_date' ) ;
#153 = ORGANIZATION ( 'UNSPECIFIED', 'UNSPECIFIED', '' ) ;
#154 = ORIENTED_EDGE ( 'NONE', *, *, #160, .F. ) ;
#155 = EDGE_CURVE ( 'NONE', #80, #169, #6, .T. ) ;
#156 = ORIENTED_EDGE ( 'NONE', *, *, #155, .T. ) ;
#157 = PLANE ( 'NONE',  #107 ) ;
#158 = CIRCLE ( 'NONE', #146, 6.349999999999999645 ) ;
#159 = CARTESIAN_POINT ( 'NONE',  ( 0.000000000000000000, 0.000000000000000000, 6.000000000000000000 ) ) ;
#160 = EDGE_CURVE ( 'NONE', #81, #61, #177, .T. ) ;
#161 = DIRECTION ( 'NONE',  ( -0.000000000000000000, -0.000000000000000000, -1.000000000000000000 ) ) ;
#162 = MECHANICAL_CONTEXT ( 'NONE', #20, 'mechanical' ) ;
#163 = CARTESIAN_POINT ( 'NONE',  ( 0.000000000000000000, 0.000000000000000000, 0.000000000000000000 ) ) ;
#164 = SHAPE_DEFINITION_REPRESENTATION ( #189, #109 ) ;
#165 = PERSON_AND_ORGANIZATION_ROLE ( 'creator' ) ;
#166 = CC_DESIGN_APPROVAL ( #73, ( #25 ) ) ;
#167 = CC_DESIGN_PERSON_AND_ORGANIZATION_ASSIGNMENT ( #94, #72, ( #120 ) ) ;
#168 = DATE_AND_TIME ( #138, #82 ) ;
#169 = VERTEX_POINT ( 'NONE', #144 ) ;
#170 = AXIS2_PLACEMENT_3D ( 'NONE', #191, #161, #47 ) ;
#171 = APPLICATION_CONTEXT ( 'configuration controlled 3d designs of mechanical parts and assemblies' ) ;
#172 = ORIENTED_EDGE ( 'NONE', *, *, #102, .F. ) ;
#173 = DIRECTION ( 'NONE',  ( -0.000000000000000000, -0.000000000000000000, -1.000000000000000000 ) ) ;
#174 = ORIENTED_EDGE ( 'NONE', *, *, #102, .T. ) ;
#175 = CC_DESIGN_SECURITY_CLASSIFICATION ( #12, ( #42 ) ) ;
#176 = CYLINDRICAL_SURFACE ( 'NONE', #24, 6.349999999999999645 ) ;
#177 = LINE ( 'NONE', #131, #117 ) ;
#178 = DIRECTION ( 'NONE',  ( -1.000000000000000000, 0.000000000000000000, 0.000000000000000000 ) ) ;
#179 = ADVANCED_FACE ( 'NONE', ( #35 ), #11, .F. ) ;
#180 = CARTESIAN_POINT ( 'NONE',  ( 1.856154119295183591E-13, 0.000000000000000000, 1505.986559106447430 ) ) ;
#181 = DIRECTION ( 'NONE',  ( 0.000000000000000000, -1.000000000000000000, -0.000000000000000000 ) ) ;
#182 = PERSON_AND_ORGANIZATION ( #64, #153 ) ;
#183 = APPROVAL_STATUS ( 'not_yet_approved' ) ;
#184 = COORDINATED_UNIVERSAL_TIME_OFFSET ( 2, 0, .AHEAD. ) ;
#185 = COORDINATED_UNIVERSAL_TIME_OFFSET ( 2, 0, .AHEAD. ) ;
#186 = DIRECTION ( 'NONE',  ( 0.000000000000000000, 0.000000000000000000, 1.000000000000000000 ) ) ;
#187 = CALENDAR_DATE ( 2021, 25, 2 ) ;
#188 = DIRECTION ( 'NONE',  ( 1.000000000000000000, 0.000000000000000000, 0.000000000000000000 ) ) ;
#189 = PRODUCT_DEFINITION_SHAPE ( 'NONE', 'NONE',  #25 ) ;
#190 = APPROVAL_PERSON_ORGANIZATION ( #141, #73, #150 ) ;
#191 = CARTESIAN_POINT ( 'NONE',  ( 1.856154119295183591E-13, 0.000000000000000000, 6.000000000000005329 ) ) ;
#192 = EDGE_CURVE ( 'NONE', #61, #62, #158, .T. ) ;
#193 = APPLICATION_PROTOCOL_DEFINITION ( 'international standard', 'config_control_design', 1994, #20 ) ;
#194 = DIRECTION ( 'NONE',  ( 1.000000000000000000, 0.000000000000000000, 0.000000000000000000 ) ) ;
#195 = PERSON_AND_ORGANIZATION ( #64, #153 ) ;
#196 = PERSON_AND_ORGANIZATION_ROLE ( 'creator' ) ;
#197 = APPLICATION_PROTOCOL_DEFINITION ( 'international standard', 'config_control_design', 1994, #171 ) ;
#198 = APPROVAL_DATE_TIME ( #60, #73 ) ;
#199 = CARTESIAN_POINT ( 'NONE',  ( 0.000000000000000000, 0.000000000000000000, 0.000000000000000000 ) ) ;
#200 = AXIS2_PLACEMENT_3D ( 'NONE', #134, #87, #36 ) ;
#201 = COORDINATED_UNIVERSAL_TIME_OFFSET ( 2, 0, .AHEAD. ) ;
ENDSEC;
END-ISO-10303-21;
