ISO-10303-21;
HEADER;
FILE_DESCRIPTION (( 'STEP AP203' ),
    '1' );
FILE_NAME ('010-1123E_UVFS_PCV_window.STEP',
    '2021-02-25T08:35:58',
    ( '' ),
    ( '' ),
    'SwSTEP 2.0',
    'SolidWorks 2019',
    '' );
FILE_SCHEMA (( 'CONFIG_CONTROL_DESIGN' ));
ENDSEC;

DATA;
#1 = CARTESIAN_POINT ( 'NONE',  ( 1.856154119295183591E-13, 0.000000000000000000, 1502.986559106447203 ) ) ;
#2 = ORIENTED_EDGE ( 'NONE', *, *, #152, .F. ) ;
#3 = COORDINATED_UNIVERSAL_TIME_OFFSET ( 2, 0, .AHEAD. ) ;
#4 = ORIENTED_EDGE ( 'NONE', *, *, #200, .T. ) ;
#5 = MANIFOLD_SOLID_BREP ( 'Cut-Revolve1', #134 ) ;
#6 =( GEOMETRIC_REPRESENTATION_CONTEXT ( 3 ) GLOBAL_UNCERTAINTY_ASSIGNED_CONTEXT ( ( #201 ) ) GLOBAL_UNIT_ASSIGNED_CONTEXT ( ( #77, #88, #185 ) ) REPRESENTATION_CONTEXT ( 'NONE', 'WORKASPACE' ) );
#7 = EDGE_LOOP ( 'NONE', ( #138, #137, #68 ) ) ;
#8 = ADVANCED_FACE ( 'NONE', ( #159 ), #85, .T. ) ;
#9 = CYLINDRICAL_SURFACE ( 'NONE', #45, 6.349999999999999645 ) ;
#10 = CIRCLE ( 'NONE', #34, 6.350000000023658941 ) ;
#11 = APPROVAL_DATE_TIME ( #25, #97 ) ;
#12 = FACE_OUTER_BOUND ( 'NONE', #7, .T. ) ;
#13 = DIRECTION ( 'NONE',  ( 1.000000000000000000, 0.000000000000000000, 0.000000000000000000 ) ) ;
#14 = VECTOR ( 'NONE', #58, 1000.000000000000000 ) ;
#15 = DIRECTION ( 'NONE',  ( 0.000000000000000000, -1.000000000000000000, -0.000000000000000000 ) ) ;
#16 = VECTOR ( 'NONE', #183, 1000.000000000000000 ) ;
#17 = DIRECTION ( 'NONE',  ( 0.000000000000000000, 0.000000000000000000, 1.000000000000000000 ) ) ;
#18 = PERSON_AND_ORGANIZATION ( #122, #191 ) ;
#19 = PERSON_AND_ORGANIZATION ( #122, #191 ) ;
#20 = DATE_AND_TIME ( #65, #76 ) ;
#21 = PRODUCT_DEFINITION_SHAPE ( 'NONE', 'NONE',  #89 ) ;
#22 = EDGE_LOOP ( 'NONE', ( #181, #28, #110, #151 ) ) ;
#23 = AXIS2_PLACEMENT_3D ( 'NONE', #147, #15, #78 ) ;
#24 = APPROVAL ( #136, 'UNSPECIFIED' ) ;
#25 = DATE_AND_TIME ( #37, #96 ) ;
#26 = LINE ( 'NONE', #70, #14 ) ;
#27 = CARTESIAN_POINT ( 'NONE',  ( 0.000000000000000000, 0.000000000000000000, 0.000000000000000000 ) ) ;
#28 = ORIENTED_EDGE ( 'NONE', *, *, #156, .T. ) ;
#29 = CARTESIAN_POINT ( 'NONE',  ( 0.000000000000000000, 0.000000000000000000, 3.000000000000000000 ) ) ;
#30 = DIRECTION ( 'NONE',  ( -0.000000000000000000, -0.000000000000000000, -1.000000000000000000 ) ) ;
#31 = DIRECTION ( 'NONE',  ( 1.000000000000000000, 1.224646799147353207E-16, 0.000000000000000000 ) ) ;
#32 = LOCAL_TIME ( 10, 35, 58.00000000000000000, #170 ) ;
#33 = SECURITY_CLASSIFICATION_LEVEL ( 'unclassified' ) ;
#34 = AXIS2_PLACEMENT_3D ( 'NONE', #184, #30, #146 ) ;
#35 = PERSON_AND_ORGANIZATION ( #122, #191 ) ;
#36 = COORDINATED_UNIVERSAL_TIME_OFFSET ( 2, 0, .AHEAD. ) ;
#37 = CALENDAR_DATE ( 2021, 25, 2 ) ;
#38 = CC_DESIGN_PERSON_AND_ORGANIZATION_ASSIGNMENT ( #82, #167, ( #123 ) ) ;
#39 = DIRECTION ( 'NONE',  ( 0.000000000000000000, 0.000000000000000000, 1.000000000000000000 ) ) ;
#40 = AXIS2_PLACEMENT_3D ( 'NONE', #143, #39, #13 ) ;
#41 = CARTESIAN_POINT ( 'NONE',  ( 0.000000000000000000, 0.000000000000000000, 0.000000000000000000 ) ) ;
#42 = DIRECTION ( 'NONE',  ( -1.000000000000000000, 0.000000000000000000, 0.000000000000000000 ) ) ;
#43 = LOCAL_TIME ( 10, 35, 58.00000000000000000, #3 ) ;
#44 = APPLICATION_PROTOCOL_DEFINITION ( 'international standard', 'config_control_design', 1994, #176 ) ;
#45 = AXIS2_PLACEMENT_3D ( 'NONE', #57, #115, #42 ) ;
#46 = APPROVAL_DATE_TIME ( #168, #24 ) ;
#47 = CALENDAR_DATE ( 2021, 25, 2 ) ;
#48 = DATE_AND_TIME ( #135, #179 ) ;
#49 = ORIENTED_EDGE ( 'NONE', *, *, #114, .F. ) ;
#50 = AXIS2_PLACEMENT_3D ( 'NONE', #1, #101, #31 ) ;
#51 = ORIENTED_EDGE ( 'NONE', *, *, #69, .T. ) ;
#52 = DATE_AND_TIME ( #177, #32 ) ;
#53 = SHAPE_DEFINITION_REPRESENTATION ( #21, #71 ) ;
#54 = SPHERICAL_SURFACE ( 'NONE', #153, 1500.000000000000000 ) ;
#55 = CIRCLE ( 'NONE', #40, 6.349999999999999645 ) ;
#56 = ADVANCED_FACE ( 'NONE', ( #12 ), #54, .F. ) ;
#57 = CARTESIAN_POINT ( 'NONE',  ( 0.000000000000000000, 0.000000000000000000, 3.000000000000000000 ) ) ;
#58 = DIRECTION ( 'NONE',  ( -0.000000000000000000, -0.000000000000000000, -1.000000000000000000 ) ) ;
#59 = CARTESIAN_POINT ( 'NONE',  ( 0.000000000000000000, 0.000000000000000000, 0.000000000000000000 ) ) ;
#60 = EDGE_CURVE ( 'NONE', #172, #66, #116, .T. ) ;
#61 = DESIGN_CONTEXT ( 'detailed design', #164, 'design' ) ;
#62 = DIRECTION ( 'NONE',  ( 0.000000000000000000, 0.000000000000000000, 1.000000000000000000 ) ) ;
#63 = APPROVAL_PERSON_ORGANIZATION ( #18, #163, #120 ) ;
#64 = COORDINATED_UNIVERSAL_TIME_OFFSET ( 2, 0, .AHEAD. ) ;
#65 = CALENDAR_DATE ( 2021, 25, 2 ) ;
#66 = VERTEX_POINT ( 'NONE', #178 ) ;
#67 = CC_DESIGN_PERSON_AND_ORGANIZATION_ASSIGNMENT ( #189, #119, ( #89 ) ) ;
#68 = ORIENTED_EDGE ( 'NONE', *, *, #200, .F. ) ;
#69 = EDGE_CURVE ( 'NONE', #99, #108, #139, .T. ) ;
#70 = CARTESIAN_POINT ( 'NONE',  ( 6.349999999999999645, 7.776507174585692163E-16, 3.000000000000000000 ) ) ;
#71 = ADVANCED_BREP_SHAPE_REPRESENTATION ( '010-1123E_UVFS_PCV_window', ( #5, #195 ), #6 ) ;
#72 = APPROVAL_PERSON_ORGANIZATION ( #19, #24, #188 ) ;
#73 = DIRECTION ( 'NONE',  ( 0.000000000000000000, 1.000000000000000000, -0.000000000000000000 ) ) ;
#74 = CC_DESIGN_PERSON_AND_ORGANIZATION_ASSIGNMENT ( #35, #93, ( #123 ) ) ;
#75 = LINE ( 'NONE', #133, #16 ) ;
#76 = LOCAL_TIME ( 10, 35, 58.00000000000000000, #64 ) ;
#77 =( LENGTH_UNIT ( ) NAMED_UNIT ( * ) SI_UNIT ( .MILLI., .METRE. ) );
#78 = DIRECTION ( 'NONE',  ( 1.000000000000000000, 0.000000000000000000, 0.000000000000000000 ) ) ;
#79 = CIRCLE ( 'NONE', #50, 1500.000000000000000 ) ;
#80 = DATE_TIME_ROLE ( 'creation_date' ) ;
#81 = CC_DESIGN_PERSON_AND_ORGANIZATION_ASSIGNMENT ( #160, #90, ( #174 ) ) ;
#82 = PERSON_AND_ORGANIZATION ( #122, #191 ) ;
#83 = ORIENTED_EDGE ( 'NONE', *, *, #186, .F. ) ;
#84 = ORIENTED_EDGE ( 'NONE', *, *, #156, .F. ) ;
#85 = CYLINDRICAL_SURFACE ( 'NONE', #161, 6.349999999999999645 ) ;
#86 = CARTESIAN_POINT ( 'NONE',  ( 6.349999999999999645, 7.776507174585692163E-16, 0.000000000000000000 ) ) ;
#87 = FACE_OUTER_BOUND ( 'NONE', #190, .T. ) ;
#88 =( NAMED_UNIT ( * ) PLANE_ANGLE_UNIT ( ) SI_UNIT ( $, .RADIAN. ) );
#89 = PRODUCT_DEFINITION ( 'UNKNOWN', '', #123, #61 ) ;
#90 = PERSON_AND_ORGANIZATION_ROLE ( 'design_owner' ) ;
#91 = COORDINATED_UNIVERSAL_TIME_OFFSET ( 2, 0, .AHEAD. ) ;
#92 = AXIS2_PLACEMENT_3D ( 'NONE', #27, #100, #194 ) ;
#93 = PERSON_AND_ORGANIZATION_ROLE ( 'creator' ) ;
#94 = ORIENTED_EDGE ( 'NONE', *, *, #60, .T. ) ;
#95 = PERSON_AND_ORGANIZATION ( #122, #191 ) ;
#96 = LOCAL_TIME ( 10, 35, 58.00000000000000000, #36 ) ;
#97 = APPROVAL ( #193, 'UNSPECIFIED' ) ;
#98 = CC_DESIGN_APPROVAL ( #163, ( #89 ) ) ;
#99 = VERTEX_POINT ( 'NONE', #86 ) ;
#100 = DIRECTION ( 'NONE',  ( 0.000000000000000000, 0.000000000000000000, 1.000000000000000000 ) ) ;
#101 = DIRECTION ( 'NONE',  ( 1.224646799147353207E-16, -1.000000000000000000, 0.000000000000000000 ) ) ;
#102 = AXIS2_PLACEMENT_3D ( 'NONE', #140, #155, #196 ) ;
#103 = DIRECTION ( 'NONE',  ( 1.000000000000000000, 0.000000000000000000, 0.000000000000000000 ) ) ;
#104 = APPROVAL_DATE_TIME ( #20, #163 ) ;
#105 = ADVANCED_FACE ( 'NONE', ( #87 ), #130, .F. ) ;
#106 = APPROVAL_STATUS ( 'not_yet_approved' ) ;
#107 = EDGE_LOOP ( 'NONE', ( #94, #121, #51, #83 ) ) ;
#108 = VERTEX_POINT ( 'NONE', #112 ) ;
#109 = PERSON_AND_ORGANIZATION ( #122, #191 ) ;
#110 = ORIENTED_EDGE ( 'NONE', *, *, #186, .T. ) ;
#111 = CC_DESIGN_PERSON_AND_ORGANIZATION_ASSIGNMENT ( #109, #128, ( #113 ) ) ;
#112 = CARTESIAN_POINT ( 'NONE',  ( -6.349999999999999645, 0.000000000000000000, 0.000000000000000000 ) ) ;
#113 = SECURITY_CLASSIFICATION ( '', '', #33 ) ;
#114 = EDGE_CURVE ( 'NONE', #108, #99, #55, .T. ) ;
#115 = DIRECTION ( 'NONE',  ( -0.000000000000000000, -0.000000000000000000, -1.000000000000000000 ) ) ;
#116 = CIRCLE ( 'NONE', #102, 6.350000000023658941 ) ;
#117 = CARTESIAN_POINT ( 'NONE',  ( 1.856154119295183591E-13, 0.000000000000000000, 1502.986559106447203 ) ) ;
#118 = CC_DESIGN_APPROVAL ( #97, ( #113 ) ) ;
#119 = PERSON_AND_ORGANIZATION_ROLE ( 'creator' ) ;
#120 = APPROVAL_ROLE ( '' ) ;
#121 = ORIENTED_EDGE ( 'NONE', *, *, #145, .T. ) ;
#122 = PERSON ( 'UNSPECIFIED', 'UNSPECIFIED', 'UNSPECIFIED', ('UNSPECIFIED'), ('UNSPECIFIED'), ('UNSPECIFIED') ) ;
#123 = PRODUCT_DEFINITION_FORMATION_WITH_SPECIFIED_SOURCE ( 'ANY', '', #174, .NOT_KNOWN. ) ;
#124 = EDGE_LOOP ( 'NONE', ( #2, #84, #4 ) ) ;
#125 = ADVANCED_FACE ( 'NONE', ( #199 ), #9, .T. ) ;
#126 = DIRECTION ( 'NONE',  ( 1.000000000000000000, 0.000000000000000000, 0.000000000000000000 ) ) ;
#127 = CC_DESIGN_DATE_AND_TIME_ASSIGNMENT ( #52, #197, ( #113 ) ) ;
#128 = PERSON_AND_ORGANIZATION_ROLE ( 'classification_officer' ) ;
#129 = CARTESIAN_POINT ( 'NONE',  ( 1.856154119295183591E-13, 0.000000000000000000, 1502.986559106447203 ) ) ;
#130 = PLANE ( 'NONE',  #92 ) ;
#131 = DIRECTION ( 'NONE',  ( 0.000000000000000000, 0.000000000000000000, 1.000000000000000000 ) ) ;
#132 = CARTESIAN_POINT ( 'NONE',  ( 2.774639218655698212E-13, 0.000000000000000000, 2.986559106447295164 ) ) ;
#133 = CARTESIAN_POINT ( 'NONE',  ( -6.349999999999999645, 0.000000000000000000, 3.000000000000000000 ) ) ;
#134 = CLOSED_SHELL ( 'NONE', ( #56, #8, #125, #105, #182 ) ) ;
#135 = CALENDAR_DATE ( 2021, 25, 2 ) ;
#136 = APPROVAL_STATUS ( 'not_yet_approved' ) ;
#137 = ORIENTED_EDGE ( 'NONE', *, *, #152, .T. ) ;
#138 = ORIENTED_EDGE ( 'NONE', *, *, #60, .F. ) ;
#139 = CIRCLE ( 'NONE', #198, 6.349999999999999645 ) ;
#140 = CARTESIAN_POINT ( 'NONE',  ( 1.856154119295183591E-13, 0.000000000000000000, 2.999999999999891642 ) ) ;
#141 = DIRECTION ( 'NONE',  ( -1.000000000000000000, 0.000000000000000000, 0.000000000000000000 ) ) ;
#142 = AXIS2_PLACEMENT_3D ( 'NONE', #117, #73, #17 ) ;
#143 = CARTESIAN_POINT ( 'NONE',  ( 0.000000000000000000, 0.000000000000000000, 0.000000000000000000 ) ) ;
#144 = CARTESIAN_POINT ( 'NONE',  ( -6.350000000023473312, 0.000000000000000000, 2.999999999999891642 ) ) ;
#145 = EDGE_CURVE ( 'NONE', #66, #99, #26, .T. ) ;
#146 = DIRECTION ( 'NONE',  ( 1.000000000000000000, 0.000000000000000000, 0.000000000000000000 ) ) ;
#147 = CARTESIAN_POINT ( 'NONE',  ( 1.856154119295183591E-13, 0.000000000000000000, 1502.986559106447203 ) ) ;
#148 = CC_DESIGN_APPROVAL ( #24, ( #123 ) ) ;
#149 = APPLICATION_PROTOCOL_DEFINITION ( 'international standard', 'config_control_design', 1994, #164 ) ;
#150 = CC_DESIGN_DATE_AND_TIME_ASSIGNMENT ( #48, #80, ( #89 ) ) ;
#151 = ORIENTED_EDGE ( 'NONE', *, *, #114, .T. ) ;
#152 = EDGE_CURVE ( 'NONE', #172, #169, #79, .T. ) ;
#153 = AXIS2_PLACEMENT_3D ( 'NONE', #129, #175, #180 ) ;
#154 = APPROVAL_ROLE ( '' ) ;
#155 = DIRECTION ( 'NONE',  ( -0.000000000000000000, -0.000000000000000000, -1.000000000000000000 ) ) ;
#156 = EDGE_CURVE ( 'NONE', #66, #172, #10, .T. ) ;
#157 = DIRECTION ( 'NONE',  ( -0.000000000000000000, -0.000000000000000000, -1.000000000000000000 ) ) ;
#158 = CIRCLE ( 'NONE', #142, 1500.000000000000000 ) ;
#159 = FACE_OUTER_BOUND ( 'NONE', #107, .T. ) ;
#160 = PERSON_AND_ORGANIZATION ( #122, #191 ) ;
#161 = AXIS2_PLACEMENT_3D ( 'NONE', #29, #157, #141 ) ;
#162 = SPHERICAL_SURFACE ( 'NONE', #23, 1500.000000000000000 ) ;
#163 = APPROVAL ( #106, 'UNSPECIFIED' ) ;
#164 = APPLICATION_CONTEXT ( 'configuration controlled 3d designs of mechanical parts and assemblies' ) ;
#165 = MECHANICAL_CONTEXT ( 'NONE', #176, 'mechanical' ) ;
#166 = FACE_OUTER_BOUND ( 'NONE', #124, .T. ) ;
#167 = PERSON_AND_ORGANIZATION_ROLE ( 'design_supplier' ) ;
#168 = DATE_AND_TIME ( #47, #43 ) ;
#169 = VERTEX_POINT ( 'NONE', #132 ) ;
#170 = COORDINATED_UNIVERSAL_TIME_OFFSET ( 2, 0, .AHEAD. ) ;
#171 = PRODUCT_RELATED_PRODUCT_CATEGORY ( 'detail', '', ( #174 ) ) ;
#172 = VERTEX_POINT ( 'NONE', #144 ) ;
#173 = CC_DESIGN_SECURITY_CLASSIFICATION ( #113, ( #123 ) ) ;
#174 = PRODUCT ( '010-1123E_UVFS_PCV_window', '010-1123E_UVFS_PCV_window', '', ( #165 ) ) ;
#175 = DIRECTION ( 'NONE',  ( 0.000000000000000000, -1.000000000000000000, -0.000000000000000000 ) ) ;
#176 = APPLICATION_CONTEXT ( 'configuration controlled 3d designs of mechanical parts and assemblies' ) ;
#177 = CALENDAR_DATE ( 2021, 25, 2 ) ;
#178 = CARTESIAN_POINT ( 'NONE',  ( 6.350000000023844571, 7.776507174614893822E-16, 2.999999999999891642 ) ) ;
#179 = LOCAL_TIME ( 10, 35, 58.00000000000000000, #91 ) ;
#180 = DIRECTION ( 'NONE',  ( 1.000000000000000000, 0.000000000000000000, 0.000000000000000000 ) ) ;
#181 = ORIENTED_EDGE ( 'NONE', *, *, #145, .F. ) ;
#182 = ADVANCED_FACE ( 'NONE', ( #166 ), #162, .F. ) ;
#183 = DIRECTION ( 'NONE',  ( -0.000000000000000000, -0.000000000000000000, -1.000000000000000000 ) ) ;
#184 = CARTESIAN_POINT ( 'NONE',  ( 1.856154119295183591E-13, 0.000000000000000000, 2.999999999999891642 ) ) ;
#185 =( NAMED_UNIT ( * ) SI_UNIT ( $, .STERADIAN. ) SOLID_ANGLE_UNIT ( ) );
#186 = EDGE_CURVE ( 'NONE', #172, #108, #75, .T. ) ;
#187 = APPROVAL_PERSON_ORGANIZATION ( #95, #97, #154 ) ;
#188 = APPROVAL_ROLE ( '' ) ;
#189 = PERSON_AND_ORGANIZATION ( #122, #191 ) ;
#190 = EDGE_LOOP ( 'NONE', ( #49, #192 ) ) ;
#191 = ORGANIZATION ( 'UNSPECIFIED', 'UNSPECIFIED', '' ) ;
#192 = ORIENTED_EDGE ( 'NONE', *, *, #69, .F. ) ;
#193 = APPROVAL_STATUS ( 'not_yet_approved' ) ;
#194 = DIRECTION ( 'NONE',  ( 1.000000000000000000, 0.000000000000000000, -0.000000000000000000 ) ) ;
#195 = AXIS2_PLACEMENT_3D ( 'NONE', #59, #62, #103 ) ;
#196 = DIRECTION ( 'NONE',  ( 1.000000000000000000, 0.000000000000000000, 0.000000000000000000 ) ) ;
#197 = DATE_TIME_ROLE ( 'classification_date' ) ;
#198 = AXIS2_PLACEMENT_3D ( 'NONE', #41, #131, #126 ) ;
#199 = FACE_OUTER_BOUND ( 'NONE', #22, .T. ) ;
#200 = EDGE_CURVE ( 'NONE', #66, #169, #158, .T. ) ;
#201 = UNCERTAINTY_MEASURE_WITH_UNIT (LENGTH_MEASURE( 1.000000000000000082E-05 ), #77, 'distance_accuracy_value', 'NONE');
ENDSEC;
END-ISO-10303-21;
