ISO-10303-21;
HEADER;
FILE_DESCRIPTION (( 'STEP AP203' ),
    '1' );
FILE_NAME ('010-1120T6_UVFS_PCV_window.STEP',
    '2021-02-25T10:37:52',
    ( '' ),
    ( '' ),
    'SwSTEP 2.0',
    'SolidWorks 2019',
    '' );
FILE_SCHEMA (( 'CONFIG_CONTROL_DESIGN' ));
ENDSEC;

DATA;
#1 = AXIS2_PLACEMENT_3D ( 'NONE', #71, #138, #75 ) ;
#2 = LOCAL_TIME ( 12, 37, 52.00000000000000000, #35 ) ;
#3 = VERTEX_POINT ( 'NONE', #189 ) ;
#4 = ORIENTED_EDGE ( 'NONE', *, *, #25, .T. ) ;
#5 = DATE_AND_TIME ( #10, #171 ) ;
#6 = SHAPE_DEFINITION_REPRESENTATION ( #85, #154 ) ;
#7 = APPROVAL_ROLE ( '' ) ;
#8 = CARTESIAN_POINT ( 'NONE',  ( 0.000000000000000000, 0.000000000000000000, 6.000000000000000000 ) ) ;
#9 = DIRECTION ( 'NONE',  ( 1.000000000000000000, 0.000000000000000000, 0.000000000000000000 ) ) ;
#10 = CALENDAR_DATE ( 2021, 25, 2 ) ;
#11 = EDGE_CURVE ( 'NONE', #3, #64, #61, .T. ) ;
#12 = SPHERICAL_SURFACE ( 'NONE', #93, 1000.000000000000000 ) ;
#13 = DIRECTION ( 'NONE',  ( 1.000000000000000000, 0.000000000000000000, 0.000000000000000000 ) ) ;
#14 = FACE_OUTER_BOUND ( 'NONE', #143, .T. ) ;
#15 = CIRCLE ( 'NONE', #36, 6.349999999999999645 ) ;
#16 = ORIENTED_EDGE ( 'NONE', *, *, #25, .F. ) ;
#17 = PERSON_AND_ORGANIZATION ( #146, #121 ) ;
#18 = CC_DESIGN_PERSON_AND_ORGANIZATION_ASSIGNMENT ( #192, #151, ( #29 ) ) ;
#19 = DIRECTION ( 'NONE',  ( -0.000000000000000000, -0.000000000000000000, -1.000000000000000000 ) ) ;
#20 = APPROVAL_STATUS ( 'not_yet_approved' ) ;
#21 = APPROVAL_DATE_TIME ( #104, #27 ) ;
#22 = CIRCLE ( 'NONE', #44, 6.349999999988691357 ) ;
#23 = FACE_OUTER_BOUND ( 'NONE', #140, .T. ) ;
#24 =( NAMED_UNIT ( * ) SI_UNIT ( $, .STERADIAN. ) SOLID_ANGLE_UNIT ( ) );
#25 = EDGE_CURVE ( 'NONE', #161, #64, #139, .T. ) ;
#26 = APPROVAL_PERSON_ORGANIZATION ( #17, #196, #88 ) ;
#27 = APPROVAL ( #168, 'UNSPECIFIED' ) ;
#28 = PRODUCT ( '010-1120T6_UVFS_PCV_window', '010-1120T6_UVFS_PCV_window', '', ( #102 ) ) ;
#29 = SECURITY_CLASSIFICATION ( '', '', #144 ) ;
#30 = VERTEX_POINT ( 'NONE', #113 ) ;
#31 = CARTESIAN_POINT ( 'NONE',  ( 1.240327285323417073E-13, 0.000000000000000000, 1005.979838546757946 ) ) ;
#32 = APPLICATION_PROTOCOL_DEFINITION ( 'international standard', 'config_control_design', 1994, #60 ) ;
#33 = CC_DESIGN_PERSON_AND_ORGANIZATION_ASSIGNMENT ( #86, #136, ( #159 ) ) ;
#34 = CARTESIAN_POINT ( 'NONE',  ( 0.000000000000000000, 0.000000000000000000, 6.000000000000000000 ) ) ;
#35 = COORDINATED_UNIVERSAL_TIME_OFFSET ( 2, 0, .AHEAD. ) ;
#36 = AXIS2_PLACEMENT_3D ( 'NONE', #41, #107, #169 ) ;
#37 = DIRECTION ( 'NONE',  ( 1.000000000000000000, 0.000000000000000000, 0.000000000000000000 ) ) ;
#38 = CARTESIAN_POINT ( 'NONE',  ( 6.349999999999999645, 7.776507174585692163E-16, 0.000000000000000000 ) ) ;
#39 = APPROVAL_ROLE ( '' ) ;
#40 = CARTESIAN_POINT ( 'NONE',  ( 6.349999999999999645, 7.776507174585692163E-16, 6.000000000000000000 ) ) ;
#41 = CARTESIAN_POINT ( 'NONE',  ( 0.000000000000000000, 0.000000000000000000, 0.000000000000000000 ) ) ;
#42 = ADVANCED_FACE ( 'NONE', ( #14 ), #132, .T. ) ;
#43 = EDGE_CURVE ( 'NONE', #161, #3, #83, .T. ) ;
#44 = AXIS2_PLACEMENT_3D ( 'NONE', #53, #122, #13 ) ;
#45 = EDGE_LOOP ( 'NONE', ( #62, #117, #81, #98 ) ) ;
#46 = ORIENTED_EDGE ( 'NONE', *, *, #110, .F. ) ;
#47 = DIRECTION ( 'NONE',  ( 0.000000000000000000, 1.000000000000000000, -0.000000000000000000 ) ) ;
#48 = APPROVAL_STATUS ( 'not_yet_approved' ) ;
#49 = PRODUCT_RELATED_PRODUCT_CATEGORY ( 'detail', '', ( #28 ) ) ;
#50 = VECTOR ( 'NONE', #197, 1000.000000000000000 ) ;
#51 = CARTESIAN_POINT ( 'NONE',  ( -6.349999999988567012, 0.000000000000000000, 6.000000000000005329 ) ) ;
#52 = DIRECTION ( 'NONE',  ( 0.000000000000000000, 0.000000000000000000, 1.000000000000000000 ) ) ;
#53 = CARTESIAN_POINT ( 'NONE',  ( 1.240327285323417073E-13, 0.000000000000000000, 6.000000000000005329 ) ) ;
#54 = PERSON_AND_ORGANIZATION ( #146, #121 ) ;
#55 = DIRECTION ( 'NONE',  ( 1.000000000000000000, 0.000000000000000000, 0.000000000000000000 ) ) ;
#56 =( LENGTH_UNIT ( ) NAMED_UNIT ( * ) SI_UNIT ( .MILLI., .METRE. ) );
#57 = AXIS2_PLACEMENT_3D ( 'NONE', #8, #155, #133 ) ;
#58 = FACE_OUTER_BOUND ( 'NONE', #84, .T. ) ;
#59 = APPROVAL ( #48, 'UNSPECIFIED' ) ;
#60 = APPLICATION_CONTEXT ( 'configuration controlled 3d designs of mechanical parts and assemblies' ) ;
#61 = CIRCLE ( 'NONE', #174, 1000.000000000000227 ) ;
#62 = ORIENTED_EDGE ( 'NONE', *, *, #43, .T. ) ;
#63 = ADVANCED_FACE ( 'NONE', ( #153 ), #12, .F. ) ;
#64 = VERTEX_POINT ( 'NONE', #137 ) ;
#65 = ORIENTED_EDGE ( 'NONE', *, *, #186, .T. ) ;
#66 = COORDINATED_UNIVERSAL_TIME_OFFSET ( 2, 0, .AHEAD. ) ;
#67 = CC_DESIGN_DATE_AND_TIME_ASSIGNMENT ( #106, #190, ( #176 ) ) ;
#68 = AXIS2_PLACEMENT_3D ( 'NONE', #163, #177, #101 ) ;
#69 = ORIENTED_EDGE ( 'NONE', *, *, #124, .T. ) ;
#70 = PERSON_AND_ORGANIZATION_ROLE ( 'design_supplier' ) ;
#71 = CARTESIAN_POINT ( 'NONE',  ( 0.000000000000000000, 0.000000000000000000, 0.000000000000000000 ) ) ;
#72 = DATE_AND_TIME ( #149, #79 ) ;
#73 = PLANE ( 'NONE',  #1 ) ;
#74 = PERSON_AND_ORGANIZATION ( #146, #121 ) ;
#75 = DIRECTION ( 'NONE',  ( 1.000000000000000000, 0.000000000000000000, -0.000000000000000000 ) ) ;
#76 = MANIFOLD_SOLID_BREP ( 'Cut-Revolve1', #152 ) ;
#77 = ADVANCED_FACE ( 'NONE', ( #23 ), #73, .F. ) ;
#78 = LINE ( 'NONE', #166, #50 ) ;
#79 = LOCAL_TIME ( 12, 37, 52.00000000000000000, #100 ) ;
#80 = CC_DESIGN_DATE_AND_TIME_ASSIGNMENT ( #5, #181, ( #29 ) ) ;
#81 = ORIENTED_EDGE ( 'NONE', *, *, #110, .T. ) ;
#82 = DIRECTION ( 'NONE',  ( -0.000000000000000000, -0.000000000000000000, -1.000000000000000000 ) ) ;
#83 = CIRCLE ( 'NONE', #141, 6.349999999988691357 ) ;
#84 = EDGE_LOOP ( 'NONE', ( #112, #4, #87 ) ) ;
#85 = PRODUCT_DEFINITION_SHAPE ( 'NONE', 'NONE',  #176 ) ;
#86 = PERSON_AND_ORGANIZATION ( #146, #121 ) ;
#87 = ORIENTED_EDGE ( 'NONE', *, *, #11, .F. ) ;
#88 = APPROVAL_ROLE ( '' ) ;
#89 = APPROVAL_PERSON_ORGANIZATION ( #74, #59, #39 ) ;
#90 = CALENDAR_DATE ( 2021, 25, 2 ) ;
#91 = ADVANCED_FACE ( 'NONE', ( #135 ), #198, .T. ) ;
#92 = PERSON_AND_ORGANIZATION ( #146, #121 ) ;
#93 = AXIS2_PLACEMENT_3D ( 'NONE', #94, #183, #37 ) ;
#94 = CARTESIAN_POINT ( 'NONE',  ( 1.240327285323417073E-13, 0.000000000000000000, 1005.979838546757946 ) ) ;
#95 = CARTESIAN_POINT ( 'NONE',  ( 1.240327285323417073E-13, 0.000000000000000000, 6.000000000000005329 ) ) ;
#96 = AXIS2_PLACEMENT_3D ( 'NONE', #131, #52, #134 ) ;
#97 = CC_DESIGN_PERSON_AND_ORGANIZATION_ASSIGNMENT ( #92, #178, ( #28 ) ) ;
#98 = ORIENTED_EDGE ( 'NONE', *, *, #147, .F. ) ;
#99 = ORIENTED_EDGE ( 'NONE', *, *, #147, .T. ) ;
#100 = COORDINATED_UNIVERSAL_TIME_OFFSET ( 2, 0, .AHEAD. ) ;
#101 = DIRECTION ( 'NONE',  ( 1.000000000000000000, 1.224646799147353207E-16, 0.000000000000000000 ) ) ;
#102 = MECHANICAL_CONTEXT ( 'NONE', #60, 'mechanical' ) ;
#103 = CC_DESIGN_APPROVAL ( #59, ( #29 ) ) ;
#104 = DATE_AND_TIME ( #116, #185 ) ;
#105 = DIRECTION ( 'NONE',  ( 1.000000000000000000, 0.000000000000000000, 0.000000000000000000 ) ) ;
#106 = DATE_AND_TIME ( #90, #108 ) ;
#107 = DIRECTION ( 'NONE',  ( 0.000000000000000000, 0.000000000000000000, 1.000000000000000000 ) ) ;
#108 = LOCAL_TIME ( 12, 37, 52.00000000000000000, #120 ) ;
#109 = UNCERTAINTY_MEASURE_WITH_UNIT (LENGTH_MEASURE( 1.000000000000000082E-05 ), #56, 'distance_accuracy_value', 'NONE');
#110 = EDGE_CURVE ( 'NONE', #201, #30, #194, .T. ) ;
#111 = CC_DESIGN_SECURITY_CLASSIFICATION ( #29, ( #159 ) ) ;
#112 = ORIENTED_EDGE ( 'NONE', *, *, #43, .F. ) ;
#113 = CARTESIAN_POINT ( 'NONE',  ( -6.349999999999999645, 0.000000000000000000, 0.000000000000000000 ) ) ;
#114 = APPROVAL_DATE_TIME ( #145, #59 ) ;
#115 = ORIENTED_EDGE ( 'NONE', *, *, #11, .T. ) ;
#116 = CALENDAR_DATE ( 2021, 25, 2 ) ;
#117 = ORIENTED_EDGE ( 'NONE', *, *, #129, .T. ) ;
#118 = COORDINATED_UNIVERSAL_TIME_OFFSET ( 2, 0, .AHEAD. ) ;
#119 = DIRECTION ( 'NONE',  ( 0.000000000000000000, -1.000000000000000000, -0.000000000000000000 ) ) ;
#120 = COORDINATED_UNIVERSAL_TIME_OFFSET ( 2, 0, .AHEAD. ) ;
#121 = ORGANIZATION ( 'UNSPECIFIED', 'UNSPECIFIED', '' ) ;
#122 = DIRECTION ( 'NONE',  ( -0.000000000000000000, -0.000000000000000000, -1.000000000000000000 ) ) ;
#123 = PERSON_AND_ORGANIZATION ( #146, #121 ) ;
#124 = EDGE_CURVE ( 'NONE', #3, #161, #22, .T. ) ;
#125 = CARTESIAN_POINT ( 'NONE',  ( 0.000000000000000000, 0.000000000000000000, 0.000000000000000000 ) ) ;
#126 = LINE ( 'NONE', #40, #165 ) ;
#127 = CC_DESIGN_APPROVAL ( #27, ( #159 ) ) ;
#128 = SPHERICAL_SURFACE ( 'NONE', #170, 1000.000000000000000 ) ;
#129 = EDGE_CURVE ( 'NONE', #3, #201, #126, .T. ) ;
#130 = ORIENTED_EDGE ( 'NONE', *, *, #129, .F. ) ;
#131 = CARTESIAN_POINT ( 'NONE',  ( 0.000000000000000000, 0.000000000000000000, 0.000000000000000000 ) ) ;
#132 = CYLINDRICAL_SURFACE ( 'NONE', #199, 6.349999999999999645 ) ;
#133 = DIRECTION ( 'NONE',  ( -1.000000000000000000, 0.000000000000000000, 0.000000000000000000 ) ) ;
#134 = DIRECTION ( 'NONE',  ( 1.000000000000000000, 0.000000000000000000, 0.000000000000000000 ) ) ;
#135 = FACE_OUTER_BOUND ( 'NONE', #45, .T. ) ;
#136 = PERSON_AND_ORGANIZATION_ROLE ( 'creator' ) ;
#137 = CARTESIAN_POINT ( 'NONE',  ( 1.852650684897093823E-13, 0.000000000000000000, 5.979838546757987316 ) ) ;
#138 = DIRECTION ( 'NONE',  ( 0.000000000000000000, 0.000000000000000000, 1.000000000000000000 ) ) ;
#139 = CIRCLE ( 'NONE', #68, 1000.000000000000000 ) ;
#140 = EDGE_LOOP ( 'NONE', ( #142, #46 ) ) ;
#141 = AXIS2_PLACEMENT_3D ( 'NONE', #95, #150, #9 ) ;
#142 = ORIENTED_EDGE ( 'NONE', *, *, #186, .F. ) ;
#143 = EDGE_LOOP ( 'NONE', ( #130, #69, #99, #65 ) ) ;
#144 = SECURITY_CLASSIFICATION_LEVEL ( 'unclassified' ) ;
#145 = DATE_AND_TIME ( #167, #2 ) ;
#146 = PERSON ( 'UNSPECIFIED', 'UNSPECIFIED', 'UNSPECIFIED', ('UNSPECIFIED'), ('UNSPECIFIED'), ('UNSPECIFIED') ) ;
#147 = EDGE_CURVE ( 'NONE', #161, #30, #78, .T. ) ;
#148 = CC_DESIGN_APPROVAL ( #196, ( #176 ) ) ;
#149 = CALENDAR_DATE ( 2021, 25, 2 ) ;
#150 = DIRECTION ( 'NONE',  ( -0.000000000000000000, -0.000000000000000000, -1.000000000000000000 ) ) ;
#151 = PERSON_AND_ORGANIZATION_ROLE ( 'classification_officer' ) ;
#152 = CLOSED_SHELL ( 'NONE', ( #157, #91, #42, #77, #63 ) ) ;
#153 = FACE_OUTER_BOUND ( 'NONE', #173, .T. ) ;
#154 = ADVANCED_BREP_SHAPE_REPRESENTATION ( '010-1120T6_UVFS_PCV_window', ( #76, #96 ), #179 ) ;
#155 = DIRECTION ( 'NONE',  ( -0.000000000000000000, -0.000000000000000000, -1.000000000000000000 ) ) ;
#156 = DESIGN_CONTEXT ( 'detailed design', #182, 'design' ) ;
#157 = ADVANCED_FACE ( 'NONE', ( #58 ), #128, .F. ) ;
#158 = APPROVAL_PERSON_ORGANIZATION ( #180, #27, #7 ) ;
#159 = PRODUCT_DEFINITION_FORMATION_WITH_SPECIFIED_SOURCE ( 'ANY', '', #28, .NOT_KNOWN. ) ;
#160 = DIRECTION ( 'NONE',  ( 0.000000000000000000, 0.000000000000000000, 1.000000000000000000 ) ) ;
#161 = VERTEX_POINT ( 'NONE', #51 ) ;
#162 = PERSON_AND_ORGANIZATION_ROLE ( 'creator' ) ;
#163 = CARTESIAN_POINT ( 'NONE',  ( 1.240327285323417073E-13, 0.000000000000000000, 1005.979838546757946 ) ) ;
#164 = APPLICATION_PROTOCOL_DEFINITION ( 'international standard', 'config_control_design', 1994, #182 ) ;
#165 = VECTOR ( 'NONE', #19, 1000.000000000000000 ) ;
#166 = CARTESIAN_POINT ( 'NONE',  ( -6.349999999999999645, 0.000000000000000000, 6.000000000000000000 ) ) ;
#167 = CALENDAR_DATE ( 2021, 25, 2 ) ;
#168 = APPROVAL_STATUS ( 'not_yet_approved' ) ;
#169 = DIRECTION ( 'NONE',  ( 1.000000000000000000, 0.000000000000000000, 0.000000000000000000 ) ) ;
#170 = AXIS2_PLACEMENT_3D ( 'NONE', #184, #119, #55 ) ;
#171 = LOCAL_TIME ( 12, 37, 52.00000000000000000, #118 ) ;
#172 = CC_DESIGN_PERSON_AND_ORGANIZATION_ASSIGNMENT ( #123, #162, ( #176 ) ) ;
#173 = EDGE_LOOP ( 'NONE', ( #16, #188, #115 ) ) ;
#174 = AXIS2_PLACEMENT_3D ( 'NONE', #31, #47, #160 ) ;
#175 = DIRECTION ( 'NONE',  ( -1.000000000000000000, 0.000000000000000000, 0.000000000000000000 ) ) ;
#176 = PRODUCT_DEFINITION ( 'UNKNOWN', '', #159, #156 ) ;
#177 = DIRECTION ( 'NONE',  ( 1.224646799147353207E-16, -1.000000000000000000, 0.000000000000000000 ) ) ;
#178 = PERSON_AND_ORGANIZATION_ROLE ( 'design_owner' ) ;
#179 =( GEOMETRIC_REPRESENTATION_CONTEXT ( 3 ) GLOBAL_UNCERTAINTY_ASSIGNED_CONTEXT ( ( #109 ) ) GLOBAL_UNIT_ASSIGNED_CONTEXT ( ( #56, #187, #24 ) ) REPRESENTATION_CONTEXT ( 'NONE', 'WORKASPACE' ) );
#180 = PERSON_AND_ORGANIZATION ( #146, #121 ) ;
#181 = DATE_TIME_ROLE ( 'classification_date' ) ;
#182 = APPLICATION_CONTEXT ( 'configuration controlled 3d designs of mechanical parts and assemblies' ) ;
#183 = DIRECTION ( 'NONE',  ( 0.000000000000000000, -1.000000000000000000, -0.000000000000000000 ) ) ;
#184 = CARTESIAN_POINT ( 'NONE',  ( 1.240327285323417073E-13, 0.000000000000000000, 1005.979838546757946 ) ) ;
#185 = LOCAL_TIME ( 12, 37, 52.00000000000000000, #66 ) ;
#186 = EDGE_CURVE ( 'NONE', #30, #201, #15, .T. ) ;
#187 =( NAMED_UNIT ( * ) PLANE_ANGLE_UNIT ( ) SI_UNIT ( $, .RADIAN. ) );
#188 = ORIENTED_EDGE ( 'NONE', *, *, #124, .F. ) ;
#189 = CARTESIAN_POINT ( 'NONE',  ( 6.349999999988814814, 7.776507174578843864E-16, 6.000000000000005329 ) ) ;
#190 = DATE_TIME_ROLE ( 'creation_date' ) ;
#191 = AXIS2_PLACEMENT_3D ( 'NONE', #125, #195, #105 ) ;
#192 = PERSON_AND_ORGANIZATION ( #146, #121 ) ;
#193 = APPROVAL_DATE_TIME ( #72, #196 ) ;
#194 = CIRCLE ( 'NONE', #191, 6.349999999999999645 ) ;
#195 = DIRECTION ( 'NONE',  ( 0.000000000000000000, 0.000000000000000000, 1.000000000000000000 ) ) ;
#196 = APPROVAL ( #20, 'UNSPECIFIED' ) ;
#197 = DIRECTION ( 'NONE',  ( -0.000000000000000000, -0.000000000000000000, -1.000000000000000000 ) ) ;
#198 = CYLINDRICAL_SURFACE ( 'NONE', #57, 6.349999999999999645 ) ;
#199 = AXIS2_PLACEMENT_3D ( 'NONE', #34, #82, #175 ) ;
#200 = CC_DESIGN_PERSON_AND_ORGANIZATION_ASSIGNMENT ( #54, #70, ( #159 ) ) ;
#201 = VERTEX_POINT ( 'NONE', #38 ) ;
ENDSEC;
END-ISO-10303-21;
