ISO-10303-21;
HEADER;
FILE_DESCRIPTION (( 'STEP AP203' ),
    '1' );
FILE_NAME ('010-1115T6_UVFS_PCV_window.STEP',
    '2021-02-25T10:37:24',
    ( '' ),
    ( '' ),
    'SwSTEP 2.0',
    'SolidWorks 2019',
    '' );
FILE_SCHEMA (( 'CONFIG_CONTROL_DESIGN' ));
ENDSEC;

DATA;
#1 = AXIS2_PLACEMENT_3D ( 'NONE', #88, #138, #121 ) ;
#2 = LINE ( 'NONE', #3, #20 ) ;
#3 = CARTESIAN_POINT ( 'NONE',  ( 6.349999999999999645, 7.776507174585692163E-16, 6.000000000000000000 ) ) ;
#4 = SPHERICAL_SURFACE ( 'NONE', #191, 500.0000000000000000 ) ;
#5 = EDGE_CURVE ( 'NONE', #72, #49, #2, .T. ) ;
#6 = APPROVAL_PERSON_ORGANIZATION ( #34, #163, #64 ) ;
#7 = DIRECTION ( 'NONE',  ( -1.000000000000000000, 0.000000000000000000, 0.000000000000000000 ) ) ;
#8 = CARTESIAN_POINT ( 'NONE',  ( 6.331740687315345895E-14, 0.000000000000000000, 6.000000000000005329 ) ) ;
#9 = EDGE_CURVE ( 'NONE', #72, #67, #195, .T. ) ;
#10 = DIRECTION ( 'NONE',  ( 1.000000000000000000, 0.000000000000000000, 0.000000000000000000 ) ) ;
#11 = PERSON_AND_ORGANIZATION_ROLE ( 'classification_officer' ) ;
#12 =( NAMED_UNIT ( * ) SI_UNIT ( $, .STERADIAN. ) SOLID_ANGLE_UNIT ( ) );
#13 = PERSON_AND_ORGANIZATION_ROLE ( 'design_owner' ) ;
#14 = LOCAL_TIME ( 12, 37, 24.00000000000000000, #161 ) ;
#15 = PERSON_AND_ORGANIZATION_ROLE ( 'creator' ) ;
#16 = CALENDAR_DATE ( 2021, 25, 2 ) ;
#17 = CLOSED_SHELL ( 'NONE', ( #18, #48, #175, #179, #190 ) ) ;
#18 = ADVANCED_FACE ( 'NONE', ( #189 ), #4, .F. ) ;
#19 = EDGE_LOOP ( 'NONE', ( #73, #38, #148, #165 ) ) ;
#20 = VECTOR ( 'NONE', #151, 1000.000000000000000 ) ;
#21 = CC_DESIGN_DATE_AND_TIME_ASSIGNMENT ( #173, #94, ( #104 ) ) ;
#22 = DIRECTION ( 'NONE',  ( 0.000000000000000000, 1.000000000000000000, -0.000000000000000000 ) ) ;
#23 = CIRCLE ( 'NONE', #145, 6.350000000001803535 ) ;
#24 = ORIENTED_EDGE ( 'NONE', *, *, #69, .T. ) ;
#25 = DIRECTION ( 'NONE',  ( 0.000000000000000000, 0.000000000000000000, 1.000000000000000000 ) ) ;
#26 = DIRECTION ( 'NONE',  ( 1.000000000000000000, 0.000000000000000000, -0.000000000000000000 ) ) ;
#27 = DIRECTION ( 'NONE',  ( -0.000000000000000000, -0.000000000000000000, -1.000000000000000000 ) ) ;
#28 = CARTESIAN_POINT ( 'NONE',  ( -6.350000000001741363, 0.000000000000000000, 6.000000000000005329 ) ) ;
#29 = DIRECTION ( 'NONE',  ( -1.000000000000000000, 0.000000000000000000, 0.000000000000000000 ) ) ;
#30 = AXIS2_PLACEMENT_3D ( 'NONE', #55, #119, #7 ) ;
#31 = PRODUCT_DEFINITION_SHAPE ( 'NONE', 'NONE',  #33 ) ;
#32 = DATE_AND_TIME ( #176, #188 ) ;
#33 = PRODUCT_DEFINITION ( 'UNKNOWN', '', #159, #68 ) ;
#34 = PERSON_AND_ORGANIZATION ( #53, #110 ) ;
#35 = CALENDAR_DATE ( 2021, 25, 2 ) ;
#36 = PERSON_AND_ORGANIZATION ( #53, #110 ) ;
#37 = CC_DESIGN_APPROVAL ( #192, ( #159 ) ) ;
#38 = ORIENTED_EDGE ( 'NONE', *, *, #5, .T. ) ;
#39 = PLANE ( 'NONE',  #156 ) ;
#40 = CARTESIAN_POINT ( 'NONE',  ( -6.349999999999999645, 0.000000000000000000, 6.000000000000000000 ) ) ;
#41 = DIRECTION ( 'NONE',  ( 1.000000000000000000, 0.000000000000000000, 0.000000000000000000 ) ) ;
#42 = DIRECTION ( 'NONE',  ( 1.000000000000000000, 1.224646799147353207E-16, 0.000000000000000000 ) ) ;
#43 = CC_DESIGN_APPROVAL ( #187, ( #104 ) ) ;
#44 =( NAMED_UNIT ( * ) PLANE_ANGLE_UNIT ( ) SI_UNIT ( $, .RADIAN. ) );
#45 = COORDINATED_UNIVERSAL_TIME_OFFSET ( 2, 0, .AHEAD. ) ;
#46 = APPLICATION_PROTOCOL_DEFINITION ( 'international standard', 'config_control_design', 1994, #154 ) ;
#47 = APPROVAL_DATE_TIME ( #32, #192 ) ;
#48 = ADVANCED_FACE ( 'NONE', ( #193 ), #85, .T. ) ;
#49 = VERTEX_POINT ( 'NONE', #57 ) ;
#50 = CC_DESIGN_PERSON_AND_ORGANIZATION_ASSIGNMENT ( #36, #11, ( #104 ) ) ;
#51 = AXIS2_PLACEMENT_3D ( 'NONE', #109, #171, #29 ) ;
#52 =( GEOMETRIC_REPRESENTATION_CONTEXT ( 3 ) GLOBAL_UNCERTAINTY_ASSIGNED_CONTEXT ( ( #100 ) ) GLOBAL_UNIT_ASSIGNED_CONTEXT ( ( #141, #44, #12 ) ) REPRESENTATION_CONTEXT ( 'NONE', 'WORKASPACE' ) );
#53 = PERSON ( 'UNSPECIFIED', 'UNSPECIFIED', 'UNSPECIFIED', ('UNSPECIFIED'), ('UNSPECIFIED'), ('UNSPECIFIED') ) ;
#54 = ORIENTED_EDGE ( 'NONE', *, *, #56, .T. ) ;
#55 = CARTESIAN_POINT ( 'NONE',  ( 0.000000000000000000, 0.000000000000000000, 6.000000000000000000 ) ) ;
#56 = EDGE_CURVE ( 'NONE', #178, #49, #115, .T. ) ;
#57 = CARTESIAN_POINT ( 'NONE',  ( 6.349999999999999645, 7.776507174585692163E-16, 0.000000000000000000 ) ) ;
#58 = DIRECTION ( 'NONE',  ( 1.224646799147353207E-16, -1.000000000000000000, 0.000000000000000000 ) ) ;
#59 = CC_DESIGN_DATE_AND_TIME_ASSIGNMENT ( #200, #107, ( #33 ) ) ;
#60 = PERSON_AND_ORGANIZATION ( #53, #110 ) ;
#61 = CALENDAR_DATE ( 2021, 25, 2 ) ;
#62 = VECTOR ( 'NONE', #27, 1000.000000000000000 ) ;
#63 = APPROVAL_STATUS ( 'not_yet_approved' ) ;
#64 = APPROVAL_ROLE ( '' ) ;
#65 = PERSON_AND_ORGANIZATION ( #53, #110 ) ;
#66 = PERSON_AND_ORGANIZATION_ROLE ( 'creator' ) ;
#67 = VERTEX_POINT ( 'NONE', #76 ) ;
#68 = DESIGN_CONTEXT ( 'detailed design', #87, 'design' ) ;
#69 = EDGE_CURVE ( 'NONE', #72, #201, #135, .T. ) ;
#70 = MANIFOLD_SOLID_BREP ( 'Cut-Revolve1', #17 ) ;
#71 = SHAPE_DEFINITION_REPRESENTATION ( #31, #134 ) ;
#72 = VERTEX_POINT ( 'NONE', #169 ) ;
#73 = ORIENTED_EDGE ( 'NONE', *, *, #112, .T. ) ;
#74 = CARTESIAN_POINT ( 'NONE',  ( 6.331740687315345895E-14, 0.000000000000000000, 505.9596758739648408 ) ) ;
#75 = LOCAL_TIME ( 12, 37, 24.00000000000000000, #174 ) ;
#76 = CARTESIAN_POINT ( 'NONE',  ( 9.393357685183729647E-14, 0.000000000000000000, 5.959675873964842552 ) ) ;
#77 = DIRECTION ( 'NONE',  ( 0.000000000000000000, -1.000000000000000000, -0.000000000000000000 ) ) ;
#78 = APPROVAL_STATUS ( 'not_yet_approved' ) ;
#79 = DIRECTION ( 'NONE',  ( 0.000000000000000000, 0.000000000000000000, 1.000000000000000000 ) ) ;
#80 = APPROVAL_ROLE ( '' ) ;
#81 = COORDINATED_UNIVERSAL_TIME_OFFSET ( 2, 0, .AHEAD. ) ;
#82 = AXIS2_PLACEMENT_3D ( 'NONE', #93, #79, #172 ) ;
#83 = PRODUCT_RELATED_PRODUCT_CATEGORY ( 'detail', '', ( #152 ) ) ;
#84 = EDGE_LOOP ( 'NONE', ( #86, #133, #146 ) ) ;
#85 = CYLINDRICAL_SURFACE ( 'NONE', #30, 6.349999999999999645 ) ;
#86 = ORIENTED_EDGE ( 'NONE', *, *, #162, .F. ) ;
#87 = APPLICATION_CONTEXT ( 'configuration controlled 3d designs of mechanical parts and assemblies' ) ;
#88 = CARTESIAN_POINT ( 'NONE',  ( 0.000000000000000000, 0.000000000000000000, 0.000000000000000000 ) ) ;
#89 = SPHERICAL_SURFACE ( 'NONE', #102, 500.0000000000000000 ) ;
#90 = CARTESIAN_POINT ( 'NONE',  ( 0.000000000000000000, 0.000000000000000000, 0.000000000000000000 ) ) ;
#91 = CC_DESIGN_APPROVAL ( #163, ( #33 ) ) ;
#92 = CARTESIAN_POINT ( 'NONE',  ( -6.349999999999999645, 0.000000000000000000, 0.000000000000000000 ) ) ;
#93 = CARTESIAN_POINT ( 'NONE',  ( 0.000000000000000000, 0.000000000000000000, 0.000000000000000000 ) ) ;
#94 = DATE_TIME_ROLE ( 'classification_date' ) ;
#95 = APPLICATION_PROTOCOL_DEFINITION ( 'international standard', 'config_control_design', 1994, #87 ) ;
#96 = DATE_AND_TIME ( #35, #168 ) ;
#97 = EDGE_LOOP ( 'NONE', ( #180, #24, #116, #54 ) ) ;
#98 = CC_DESIGN_PERSON_AND_ORGANIZATION_ASSIGNMENT ( #140, #158, ( #159 ) ) ;
#99 = CIRCLE ( 'NONE', #185, 500.0000000000000000 ) ;
#100 = UNCERTAINTY_MEASURE_WITH_UNIT (LENGTH_MEASURE( 1.000000000000000082E-05 ), #141, 'distance_accuracy_value', 'NONE');
#101 = EDGE_CURVE ( 'NONE', #201, #178, #120, .T. ) ;
#102 = AXIS2_PLACEMENT_3D ( 'NONE', #183, #77, #41 ) ;
#103 = ORIENTED_EDGE ( 'NONE', *, *, #108, .F. ) ;
#104 = SECURITY_CLASSIFICATION ( '', '', #124 ) ;
#105 = CARTESIAN_POINT ( 'NONE',  ( 0.000000000000000000, 0.000000000000000000, 0.000000000000000000 ) ) ;
#106 = DIRECTION ( 'NONE',  ( 1.000000000000000000, 0.000000000000000000, 0.000000000000000000 ) ) ;
#107 = DATE_TIME_ROLE ( 'creation_date' ) ;
#108 = EDGE_CURVE ( 'NONE', #49, #178, #118, .T. ) ;
#109 = CARTESIAN_POINT ( 'NONE',  ( 0.000000000000000000, 0.000000000000000000, 6.000000000000000000 ) ) ;
#110 = ORGANIZATION ( 'UNSPECIFIED', 'UNSPECIFIED', '' ) ;
#111 = APPROVAL_DATE_TIME ( #139, #187 ) ;
#112 = EDGE_CURVE ( 'NONE', #201, #72, #23, .T. ) ;
#113 = APPROVAL_DATE_TIME ( #96, #163 ) ;
#114 = ORIENTED_EDGE ( 'NONE', *, *, #112, .F. ) ;
#115 = CIRCLE ( 'NONE', #1, 6.349999999999999645 ) ;
#116 = ORIENTED_EDGE ( 'NONE', *, *, #101, .T. ) ;
#117 = ORIENTED_EDGE ( 'NONE', *, *, #162, .T. ) ;
#118 = CIRCLE ( 'NONE', #150, 6.349999999999999645 ) ;
#119 = DIRECTION ( 'NONE',  ( -0.000000000000000000, -0.000000000000000000, -1.000000000000000000 ) ) ;
#120 = LINE ( 'NONE', #40, #62 ) ;
#121 = DIRECTION ( 'NONE',  ( 1.000000000000000000, 0.000000000000000000, 0.000000000000000000 ) ) ;
#122 = CC_DESIGN_PERSON_AND_ORGANIZATION_ASSIGNMENT ( #160, #15, ( #33 ) ) ;
#123 = FACE_OUTER_BOUND ( 'NONE', #97, .T. ) ;
#124 = SECURITY_CLASSIFICATION_LEVEL ( 'unclassified' ) ;
#125 = COORDINATED_UNIVERSAL_TIME_OFFSET ( 2, 0, .AHEAD. ) ;
#126 = APPROVAL_ROLE ( '' ) ;
#127 = ORIENTED_EDGE ( 'NONE', *, *, #9, .F. ) ;
#128 = CC_DESIGN_PERSON_AND_ORGANIZATION_ASSIGNMENT ( #60, #13, ( #152 ) ) ;
#129 = CC_DESIGN_SECURITY_CLASSIFICATION ( #104, ( #159 ) ) ;
#130 = CARTESIAN_POINT ( 'NONE',  ( 6.331740687315345895E-14, 0.000000000000000000, 505.9596758739648408 ) ) ;
#131 = DIRECTION ( 'NONE',  ( 0.000000000000000000, -1.000000000000000000, -0.000000000000000000 ) ) ;
#132 = APPROVAL_PERSON_ORGANIZATION ( #198, #192, #80 ) ;
#133 = ORIENTED_EDGE ( 'NONE', *, *, #69, .F. ) ;
#134 = ADVANCED_BREP_SHAPE_REPRESENTATION ( '010-1115T6_UVFS_PCV_window', ( #70, #82 ), #52 ) ;
#135 = CIRCLE ( 'NONE', #186, 6.350000000001803535 ) ;
#136 = DIRECTION ( 'NONE',  ( 0.000000000000000000, 0.000000000000000000, 1.000000000000000000 ) ) ;
#137 = LOCAL_TIME ( 12, 37, 24.00000000000000000, #81 ) ;
#138 = DIRECTION ( 'NONE',  ( 0.000000000000000000, 0.000000000000000000, 1.000000000000000000 ) ) ;
#139 = DATE_AND_TIME ( #16, #14 ) ;
#140 = PERSON_AND_ORGANIZATION ( #53, #110 ) ;
#141 =( LENGTH_UNIT ( ) NAMED_UNIT ( * ) SI_UNIT ( .MILLI., .METRE. ) );
#142 = APPROVAL_PERSON_ORGANIZATION ( #65, #187, #126 ) ;
#143 = APPROVAL_STATUS ( 'not_yet_approved' ) ;
#144 = CC_DESIGN_PERSON_AND_ORGANIZATION_ASSIGNMENT ( #157, #66, ( #159 ) ) ;
#145 = AXIS2_PLACEMENT_3D ( 'NONE', #8, #153, #10 ) ;
#146 = ORIENTED_EDGE ( 'NONE', *, *, #9, .T. ) ;
#147 = ORIENTED_EDGE ( 'NONE', *, *, #56, .F. ) ;
#148 = ORIENTED_EDGE ( 'NONE', *, *, #108, .T. ) ;
#149 = DIRECTION ( 'NONE',  ( 1.000000000000000000, 0.000000000000000000, 0.000000000000000000 ) ) ;
#150 = AXIS2_PLACEMENT_3D ( 'NONE', #90, #136, #155 ) ;
#151 = DIRECTION ( 'NONE',  ( -0.000000000000000000, -0.000000000000000000, -1.000000000000000000 ) ) ;
#152 = PRODUCT ( '010-1115T6_UVFS_PCV_window', '010-1115T6_UVFS_PCV_window', '', ( #197 ) ) ;
#153 = DIRECTION ( 'NONE',  ( -0.000000000000000000, -0.000000000000000000, -1.000000000000000000 ) ) ;
#154 = APPLICATION_CONTEXT ( 'configuration controlled 3d designs of mechanical parts and assemblies' ) ;
#155 = DIRECTION ( 'NONE',  ( 1.000000000000000000, 0.000000000000000000, 0.000000000000000000 ) ) ;
#156 = AXIS2_PLACEMENT_3D ( 'NONE', #105, #25, #26 ) ;
#157 = PERSON_AND_ORGANIZATION ( #53, #110 ) ;
#158 = PERSON_AND_ORGANIZATION_ROLE ( 'design_supplier' ) ;
#159 = PRODUCT_DEFINITION_FORMATION_WITH_SPECIFIED_SOURCE ( 'ANY', '', #152, .NOT_KNOWN. ) ;
#160 = PERSON_AND_ORGANIZATION ( #53, #110 ) ;
#161 = COORDINATED_UNIVERSAL_TIME_OFFSET ( 2, 0, .AHEAD. ) ;
#162 = EDGE_CURVE ( 'NONE', #201, #67, #99, .T. ) ;
#163 = APPROVAL ( #143, 'UNSPECIFIED' ) ;
#164 = EDGE_LOOP ( 'NONE', ( #114, #117, #127 ) ) ;
#165 = ORIENTED_EDGE ( 'NONE', *, *, #101, .F. ) ;
#166 = EDGE_LOOP ( 'NONE', ( #147, #103 ) ) ;
#167 = DIRECTION ( 'NONE',  ( 0.000000000000000000, 0.000000000000000000, 1.000000000000000000 ) ) ;
#168 = LOCAL_TIME ( 12, 37, 24.00000000000000000, #125 ) ;
#169 = CARTESIAN_POINT ( 'NONE',  ( 6.350000000001866596, 7.776507174587978874E-16, 6.000000000000005329 ) ) ;
#170 = CARTESIAN_POINT ( 'NONE',  ( 6.331740687315345895E-14, 0.000000000000000000, 6.000000000000005329 ) ) ;
#171 = DIRECTION ( 'NONE',  ( -0.000000000000000000, -0.000000000000000000, -1.000000000000000000 ) ) ;
#172 = DIRECTION ( 'NONE',  ( 1.000000000000000000, 0.000000000000000000, 0.000000000000000000 ) ) ;
#173 = DATE_AND_TIME ( #199, #137 ) ;
#174 = COORDINATED_UNIVERSAL_TIME_OFFSET ( 2, 0, .AHEAD. ) ;
#175 = ADVANCED_FACE ( 'NONE', ( #123 ), #182, .T. ) ;
#176 = CALENDAR_DATE ( 2021, 25, 2 ) ;
#177 = AXIS2_PLACEMENT_3D ( 'NONE', #130, #22, #167 ) ;
#178 = VERTEX_POINT ( 'NONE', #92 ) ;
#179 = ADVANCED_FACE ( 'NONE', ( #181 ), #39, .F. ) ;
#180 = ORIENTED_EDGE ( 'NONE', *, *, #5, .F. ) ;
#181 = FACE_OUTER_BOUND ( 'NONE', #166, .T. ) ;
#182 = CYLINDRICAL_SURFACE ( 'NONE', #51, 6.349999999999999645 ) ;
#183 = CARTESIAN_POINT ( 'NONE',  ( 6.331740687315345895E-14, 0.000000000000000000, 505.9596758739648408 ) ) ;
#184 = FACE_OUTER_BOUND ( 'NONE', #84, .T. ) ;
#185 = AXIS2_PLACEMENT_3D ( 'NONE', #194, #58, #42 ) ;
#186 = AXIS2_PLACEMENT_3D ( 'NONE', #170, #196, #106 ) ;
#187 = APPROVAL ( #78, 'UNSPECIFIED' ) ;
#188 = LOCAL_TIME ( 12, 37, 24.00000000000000000, #45 ) ;
#189 = FACE_OUTER_BOUND ( 'NONE', #164, .T. ) ;
#190 = ADVANCED_FACE ( 'NONE', ( #184 ), #89, .F. ) ;
#191 = AXIS2_PLACEMENT_3D ( 'NONE', #74, #131, #149 ) ;
#192 = APPROVAL ( #63, 'UNSPECIFIED' ) ;
#193 = FACE_OUTER_BOUND ( 'NONE', #19, .T. ) ;
#194 = CARTESIAN_POINT ( 'NONE',  ( 6.331740687315345895E-14, 0.000000000000000000, 505.9596758739648408 ) ) ;
#195 = CIRCLE ( 'NONE', #177, 500.0000000000000000 ) ;
#196 = DIRECTION ( 'NONE',  ( -0.000000000000000000, -0.000000000000000000, -1.000000000000000000 ) ) ;
#197 = MECHANICAL_CONTEXT ( 'NONE', #154, 'mechanical' ) ;
#198 = PERSON_AND_ORGANIZATION ( #53, #110 ) ;
#199 = CALENDAR_DATE ( 2021, 25, 2 ) ;
#200 = DATE_AND_TIME ( #61, #75 ) ;
#201 = VERTEX_POINT ( 'NONE', #28 ) ;
ENDSEC;
END-ISO-10303-21;
