ISO-10303-21;
HEADER;
FILE_DESCRIPTION (( 'STEP AP203' ),
    '1' );
FILE_NAME ('010-1115E_UVFS_PCV_window.STEP',
    '2021-02-25T08:35:08',
    ( '' ),
    ( '' ),
    'SwSTEP 2.0',
    'SolidWorks 2019',
    '' );
FILE_SCHEMA (( 'CONFIG_CONTROL_DESIGN' ));
ENDSEC;

DATA;
#1 = CARTESIAN_POINT ( 'NONE',  ( 0.000000000000000000, 0.000000000000000000, 0.000000000000000000 ) ) ;
#2 = MECHANICAL_CONTEXT ( 'NONE', #126, 'mechanical' ) ;
#3 = COORDINATED_UNIVERSAL_TIME_OFFSET ( 2, 0, .AHEAD. ) ;
#4 = PERSON_AND_ORGANIZATION ( #117, #57 ) ;
#5 = CIRCLE ( 'NONE', #197, 6.349999999999999645 ) ;
#6 = EDGE_CURVE ( 'NONE', #22, #113, #178, .T. ) ;
#7 = APPROVAL_ROLE ( '' ) ;
#8 = VERTEX_POINT ( 'NONE', #14 ) ;
#9 = EDGE_LOOP ( 'NONE', ( #50, #142 ) ) ;
#10 = DIRECTION ( 'NONE',  ( 1.000000000000000000, 0.000000000000000000, 0.000000000000000000 ) ) ;
#11 = EDGE_CURVE ( 'NONE', #97, #8, #5, .T. ) ;
#12 = CARTESIAN_POINT ( 'NONE',  ( 6.331740687315345895E-14, 0.000000000000000000, 502.9596758739648408 ) ) ;
#13 = DIRECTION ( 'NONE',  ( 0.000000000000000000, 1.000000000000000000, -0.000000000000000000 ) ) ;
#14 = CARTESIAN_POINT ( 'NONE',  ( 6.349999999999999645, 7.776507174585692163E-16, 0.000000000000000000 ) ) ;
#15 = CC_DESIGN_PERSON_AND_ORGANIZATION_ASSIGNMENT ( #169, #81, ( #33 ) ) ;
#16 = CALENDAR_DATE ( 2021, 25, 2 ) ;
#17 = COORDINATED_UNIVERSAL_TIME_OFFSET ( 2, 0, .AHEAD. ) ;
#18 = PERSON_AND_ORGANIZATION ( #117, #57 ) ;
#19 = CC_DESIGN_APPROVAL ( #111, ( #33 ) ) ;
#20 = LOCAL_TIME ( 10, 35, 8.000000000000000000, #141 ) ;
#21 = AXIS2_PLACEMENT_3D ( 'NONE', #119, #198, #89 ) ;
#22 = VERTEX_POINT ( 'NONE', #71 ) ;
#23 = EDGE_CURVE ( 'NONE', #128, #113, #107, .T. ) ;
#24 = CARTESIAN_POINT ( 'NONE',  ( 9.393357685183729647E-14, 0.000000000000000000, 2.959675873964839887 ) ) ;
#25 = AXIS2_PLACEMENT_3D ( 'NONE', #184, #26, #104 ) ;
#26 = DIRECTION ( 'NONE',  ( -0.000000000000000000, -0.000000000000000000, -1.000000000000000000 ) ) ;
#27 = CYLINDRICAL_SURFACE ( 'NONE', #72, 6.349999999999999645 ) ;
#28 = DIRECTION ( 'NONE',  ( -0.000000000000000000, -0.000000000000000000, -1.000000000000000000 ) ) ;
#29 = APPROVAL_ROLE ( '' ) ;
#30 = DATE_AND_TIME ( #106, #20 ) ;
#31 = APPLICATION_PROTOCOL_DEFINITION ( 'international standard', 'config_control_design', 1994, #145 ) ;
#32 = PERSON_AND_ORGANIZATION_ROLE ( 'design_supplier' ) ;
#33 = PRODUCT_DEFINITION_FORMATION_WITH_SPECIFIED_SOURCE ( 'ANY', '', #176, .NOT_KNOWN. ) ;
#34 = EDGE_LOOP ( 'NONE', ( #66, #158, #82 ) ) ;
#35 = AXIS2_PLACEMENT_3D ( 'NONE', #101, #199, #56 ) ;
#36 = ORIENTED_EDGE ( 'NONE', *, *, #73, .T. ) ;
#37 = ADVANCED_FACE ( 'NONE', ( #40 ), #167, .F. ) ;
#38 = DIRECTION ( 'NONE',  ( -1.000000000000000000, 0.000000000000000000, 0.000000000000000000 ) ) ;
#39 = PRODUCT_RELATED_PRODUCT_CATEGORY ( 'detail', '', ( #176 ) ) ;
#40 = FACE_OUTER_BOUND ( 'NONE', #9, .T. ) ;
#41 =( GEOMETRIC_REPRESENTATION_CONTEXT ( 3 ) GLOBAL_UNCERTAINTY_ASSIGNED_CONTEXT ( ( #129 ) ) GLOBAL_UNIT_ASSIGNED_CONTEXT ( ( #132, #162, #123 ) ) REPRESENTATION_CONTEXT ( 'NONE', 'WORKASPACE' ) );
#42 = CARTESIAN_POINT ( 'NONE',  ( 0.000000000000000000, 0.000000000000000000, 0.000000000000000000 ) ) ;
#43 = LINE ( 'NONE', #165, #84 ) ;
#44 = CARTESIAN_POINT ( 'NONE',  ( 6.331740687315345895E-14, 0.000000000000000000, 502.9596758739648408 ) ) ;
#45 = PRODUCT_DEFINITION ( 'UNKNOWN', '', #33, #92 ) ;
#46 = PERSON_AND_ORGANIZATION ( #117, #57 ) ;
#47 = EDGE_LOOP ( 'NONE', ( #114, #36, #127, #67 ) ) ;
#48 = ORIENTED_EDGE ( 'NONE', *, *, #73, .F. ) ;
#49 = CLOSED_SHELL ( 'NONE', ( #109, #58, #194, #37, #80 ) ) ;
#50 = ORIENTED_EDGE ( 'NONE', *, *, #11, .F. ) ;
#51 = DIRECTION ( 'NONE',  ( 0.000000000000000000, -1.000000000000000000, -0.000000000000000000 ) ) ;
#52 = ADVANCED_BREP_SHAPE_REPRESENTATION ( '010-1115E_UVFS_PCV_window', ( #143, #122 ), #41 ) ;
#53 = DIRECTION ( 'NONE',  ( -1.000000000000000000, 0.000000000000000000, 0.000000000000000000 ) ) ;
#54 = CIRCLE ( 'NONE', #25, 6.350000000001803535 ) ;
#55 = DIRECTION ( 'NONE',  ( 1.000000000000000000, 0.000000000000000000, -0.000000000000000000 ) ) ;
#56 = DIRECTION ( 'NONE',  ( 1.000000000000000000, 0.000000000000000000, 0.000000000000000000 ) ) ;
#57 = ORGANIZATION ( 'UNSPECIFIED', 'UNSPECIFIED', '' ) ;
#58 = ADVANCED_FACE ( 'NONE', ( #99 ), #27, .T. ) ;
#59 = APPROVAL_DATE_TIME ( #61, #152 ) ;
#60 = DATE_TIME_ROLE ( 'creation_date' ) ;
#61 = DATE_AND_TIME ( #137, #200 ) ;
#62 = APPROVAL_PERSON_ORGANIZATION ( #153, #152, #29 ) ;
#63 = COORDINATED_UNIVERSAL_TIME_OFFSET ( 2, 0, .AHEAD. ) ;
#64 = AXIS2_PLACEMENT_3D ( 'NONE', #42, #161, #55 ) ;
#65 = SECURITY_CLASSIFICATION_LEVEL ( 'unclassified' ) ;
#66 = ORIENTED_EDGE ( 'NONE', *, *, #146, .F. ) ;
#67 = ORIENTED_EDGE ( 'NONE', *, *, #11, .T. ) ;
#68 = SECURITY_CLASSIFICATION ( '', '', #65 ) ;
#69 = ORIENTED_EDGE ( 'NONE', *, *, #130, .T. ) ;
#70 = DIRECTION ( 'NONE',  ( 0.000000000000000000, 0.000000000000000000, 1.000000000000000000 ) ) ;
#71 = CARTESIAN_POINT ( 'NONE',  ( 6.350000000001866596, 7.776507174587978874E-16, 3.000000000000002665 ) ) ;
#72 = AXIS2_PLACEMENT_3D ( 'NONE', #151, #135, #53 ) ;
#73 = EDGE_CURVE ( 'NONE', #22, #128, #160, .T. ) ;
#74 = DIRECTION ( 'NONE',  ( 0.000000000000000000, 0.000000000000000000, 1.000000000000000000 ) ) ;
#75 = APPROVAL ( #94, 'UNSPECIFIED' ) ;
#76 = APPROVAL_STATUS ( 'not_yet_approved' ) ;
#77 = APPLICATION_PROTOCOL_DEFINITION ( 'international standard', 'config_control_design', 1994, #126 ) ;
#78 = APPROVAL_ROLE ( '' ) ;
#79 = PERSON_AND_ORGANIZATION_ROLE ( 'classification_officer' ) ;
#80 = ADVANCED_FACE ( 'NONE', ( #149 ), #182, .F. ) ;
#81 = PERSON_AND_ORGANIZATION_ROLE ( 'creator' ) ;
#82 = ORIENTED_EDGE ( 'NONE', *, *, #6, .F. ) ;
#83 = ORIENTED_EDGE ( 'NONE', *, *, #23, .F. ) ;
#84 = VECTOR ( 'NONE', #120, 1000.000000000000000 ) ;
#85 = EDGE_LOOP ( 'NONE', ( #147, #69, #157, #175 ) ) ;
#86 = CARTESIAN_POINT ( 'NONE',  ( 0.000000000000000000, 0.000000000000000000, 3.000000000000000000 ) ) ;
#87 = CARTESIAN_POINT ( 'NONE',  ( 0.000000000000000000, 0.000000000000000000, 0.000000000000000000 ) ) ;
#88 = DIRECTION ( 'NONE',  ( -0.000000000000000000, -0.000000000000000000, -1.000000000000000000 ) ) ;
#89 = DIRECTION ( 'NONE',  ( 1.000000000000000000, 1.224646799147353207E-16, 0.000000000000000000 ) ) ;
#90 = DIRECTION ( 'NONE',  ( 0.000000000000000000, 0.000000000000000000, 1.000000000000000000 ) ) ;
#91 = COORDINATED_UNIVERSAL_TIME_OFFSET ( 2, 0, .AHEAD. ) ;
#92 = DESIGN_CONTEXT ( 'detailed design', #145, 'design' ) ;
#93 = PERSON_AND_ORGANIZATION ( #117, #57 ) ;
#94 = APPROVAL_STATUS ( 'not_yet_approved' ) ;
#95 = CC_DESIGN_PERSON_AND_ORGANIZATION_ASSIGNMENT ( #4, #32, ( #33 ) ) ;
#96 = AXIS2_PLACEMENT_3D ( 'NONE', #183, #88, #118 ) ;
#97 = VERTEX_POINT ( 'NONE', #103 ) ;
#98 = CC_DESIGN_DATE_AND_TIME_ASSIGNMENT ( #138, #60, ( #45 ) ) ;
#99 = FACE_OUTER_BOUND ( 'NONE', #85, .T. ) ;
#100 = CARTESIAN_POINT ( 'NONE',  ( -6.350000000001741363, 0.000000000000000000, 3.000000000000002665 ) ) ;
#101 = CARTESIAN_POINT ( 'NONE',  ( 6.331740687315345895E-14, 0.000000000000000000, 502.9596758739648408 ) ) ;
#102 = LOCAL_TIME ( 10, 35, 8.000000000000000000, #3 ) ;
#103 = CARTESIAN_POINT ( 'NONE',  ( -6.349999999999999645, 0.000000000000000000, 0.000000000000000000 ) ) ;
#104 = DIRECTION ( 'NONE',  ( 1.000000000000000000, 0.000000000000000000, 0.000000000000000000 ) ) ;
#105 = PERSON_AND_ORGANIZATION_ROLE ( 'creator' ) ;
#106 = CALENDAR_DATE ( 2021, 25, 2 ) ;
#107 = CIRCLE ( 'NONE', #21, 500.0000000000000000 ) ;
#108 = APPROVAL_DATE_TIME ( #110, #111 ) ;
#109 = ADVANCED_FACE ( 'NONE', ( #134 ), #163, .F. ) ;
#110 = DATE_AND_TIME ( #170, #102 ) ;
#111 = APPROVAL ( #186, 'UNSPECIFIED' ) ;
#112 = EDGE_LOOP ( 'NONE', ( #83, #48, #191 ) ) ;
#113 = VERTEX_POINT ( 'NONE', #24 ) ;
#114 = ORIENTED_EDGE ( 'NONE', *, *, #130, .F. ) ;
#115 = EDGE_CURVE ( 'NONE', #128, #97, #43, .T. ) ;
#116 = CARTESIAN_POINT ( 'NONE',  ( 6.349999999999999645, 7.776507174585692163E-16, 3.000000000000000000 ) ) ;
#117 = PERSON ( 'UNSPECIFIED', 'UNSPECIFIED', 'UNSPECIFIED', ('UNSPECIFIED'), ('UNSPECIFIED'), ('UNSPECIFIED') ) ;
#118 = DIRECTION ( 'NONE',  ( 1.000000000000000000, 0.000000000000000000, 0.000000000000000000 ) ) ;
#119 = CARTESIAN_POINT ( 'NONE',  ( 6.331740687315345895E-14, 0.000000000000000000, 502.9596758739648408 ) ) ;
#120 = DIRECTION ( 'NONE',  ( -0.000000000000000000, -0.000000000000000000, -1.000000000000000000 ) ) ;
#121 = PERSON_AND_ORGANIZATION ( #117, #57 ) ;
#122 = AXIS2_PLACEMENT_3D ( 'NONE', #1, #90, #201 ) ;
#123 =( NAMED_UNIT ( * ) SI_UNIT ( $, .STERADIAN. ) SOLID_ANGLE_UNIT ( ) );
#124 = LOCAL_TIME ( 10, 35, 8.000000000000000000, #63 ) ;
#125 = APPROVAL_PERSON_ORGANIZATION ( #121, #111, #7 ) ;
#126 = APPLICATION_CONTEXT ( 'configuration controlled 3d designs of mechanical parts and assemblies' ) ;
#127 = ORIENTED_EDGE ( 'NONE', *, *, #115, .T. ) ;
#128 = VERTEX_POINT ( 'NONE', #100 ) ;
#129 = UNCERTAINTY_MEASURE_WITH_UNIT (LENGTH_MEASURE( 1.000000000000000082E-05 ), #132, 'distance_accuracy_value', 'NONE');
#130 = EDGE_CURVE ( 'NONE', #22, #8, #196, .T. ) ;
#131 = DIRECTION ( 'NONE',  ( 1.000000000000000000, 0.000000000000000000, 0.000000000000000000 ) ) ;
#132 =( LENGTH_UNIT ( ) NAMED_UNIT ( * ) SI_UNIT ( .MILLI., .METRE. ) );
#133 = CARTESIAN_POINT ( 'NONE',  ( 0.000000000000000000, 0.000000000000000000, 0.000000000000000000 ) ) ;
#134 = FACE_OUTER_BOUND ( 'NONE', #34, .T. ) ;
#135 = DIRECTION ( 'NONE',  ( -0.000000000000000000, -0.000000000000000000, -1.000000000000000000 ) ) ;
#136 = CC_DESIGN_APPROVAL ( #152, ( #45 ) ) ;
#137 = CALENDAR_DATE ( 2021, 25, 2 ) ;
#138 = DATE_AND_TIME ( #16, #190 ) ;
#139 = AXIS2_PLACEMENT_3D ( 'NONE', #86, #180, #38 ) ;
#140 = APPROVAL_DATE_TIME ( #156, #75 ) ;
#141 = COORDINATED_UNIVERSAL_TIME_OFFSET ( 2, 0, .AHEAD. ) ;
#142 = ORIENTED_EDGE ( 'NONE', *, *, #189, .F. ) ;
#143 = MANIFOLD_SOLID_BREP ( 'Cut-Revolve1', #49 ) ;
#144 = VECTOR ( 'NONE', #28, 1000.000000000000000 ) ;
#145 = APPLICATION_CONTEXT ( 'configuration controlled 3d designs of mechanical parts and assemblies' ) ;
#146 = EDGE_CURVE ( 'NONE', #128, #22, #54, .T. ) ;
#147 = ORIENTED_EDGE ( 'NONE', *, *, #146, .T. ) ;
#148 = DIRECTION ( 'NONE',  ( 0.000000000000000000, 0.000000000000000000, 1.000000000000000000 ) ) ;
#149 = FACE_OUTER_BOUND ( 'NONE', #112, .T. ) ;
#150 = AXIS2_PLACEMENT_3D ( 'NONE', #44, #51, #181 ) ;
#151 = CARTESIAN_POINT ( 'NONE',  ( 0.000000000000000000, 0.000000000000000000, 3.000000000000000000 ) ) ;
#152 = APPROVAL ( #76, 'UNSPECIFIED' ) ;
#153 = PERSON_AND_ORGANIZATION ( #117, #57 ) ;
#154 = CIRCLE ( 'NONE', #171, 6.349999999999999645 ) ;
#155 = CALENDAR_DATE ( 2021, 25, 2 ) ;
#156 = DATE_AND_TIME ( #155, #124 ) ;
#157 = ORIENTED_EDGE ( 'NONE', *, *, #189, .T. ) ;
#158 = ORIENTED_EDGE ( 'NONE', *, *, #23, .T. ) ;
#159 = APPROVAL_PERSON_ORGANIZATION ( #173, #75, #78 ) ;
#160 = CIRCLE ( 'NONE', #96, 6.350000000001803535 ) ;
#161 = DIRECTION ( 'NONE',  ( 0.000000000000000000, 0.000000000000000000, 1.000000000000000000 ) ) ;
#162 =( NAMED_UNIT ( * ) PLANE_ANGLE_UNIT ( ) SI_UNIT ( $, .RADIAN. ) );
#163 = SPHERICAL_SURFACE ( 'NONE', #150, 500.0000000000000000 ) ;
#164 = PRODUCT_DEFINITION_SHAPE ( 'NONE', 'NONE',  #45 ) ;
#165 = CARTESIAN_POINT ( 'NONE',  ( -6.349999999999999645, 0.000000000000000000, 3.000000000000000000 ) ) ;
#166 = CC_DESIGN_PERSON_AND_ORGANIZATION_ASSIGNMENT ( #46, #105, ( #45 ) ) ;
#167 = PLANE ( 'NONE',  #64 ) ;
#168 = PERSON_AND_ORGANIZATION_ROLE ( 'design_owner' ) ;
#169 = PERSON_AND_ORGANIZATION ( #117, #57 ) ;
#170 = CALENDAR_DATE ( 2021, 25, 2 ) ;
#171 = AXIS2_PLACEMENT_3D ( 'NONE', #87, #148, #10 ) ;
#172 = SHAPE_DEFINITION_REPRESENTATION ( #164, #52 ) ;
#173 = PERSON_AND_ORGANIZATION ( #117, #57 ) ;
#174 = CC_DESIGN_PERSON_AND_ORGANIZATION_ASSIGNMENT ( #93, #168, ( #176 ) ) ;
#175 = ORIENTED_EDGE ( 'NONE', *, *, #115, .F. ) ;
#176 = PRODUCT ( '010-1115E_UVFS_PCV_window', '010-1115E_UVFS_PCV_window', '', ( #2 ) ) ;
#177 = CC_DESIGN_SECURITY_CLASSIFICATION ( #68, ( #33 ) ) ;
#178 = CIRCLE ( 'NONE', #192, 500.0000000000001137 ) ;
#179 = CC_DESIGN_PERSON_AND_ORGANIZATION_ASSIGNMENT ( #18, #79, ( #68 ) ) ;
#180 = DIRECTION ( 'NONE',  ( -0.000000000000000000, -0.000000000000000000, -1.000000000000000000 ) ) ;
#181 = DIRECTION ( 'NONE',  ( 1.000000000000000000, 0.000000000000000000, 0.000000000000000000 ) ) ;
#182 = SPHERICAL_SURFACE ( 'NONE', #35, 500.0000000000000000 ) ;
#183 = CARTESIAN_POINT ( 'NONE',  ( 6.331740687315345895E-14, 0.000000000000000000, 3.000000000000002665 ) ) ;
#184 = CARTESIAN_POINT ( 'NONE',  ( 6.331740687315345895E-14, 0.000000000000000000, 3.000000000000002665 ) ) ;
#185 = CC_DESIGN_DATE_AND_TIME_ASSIGNMENT ( #30, #188, ( #68 ) ) ;
#186 = APPROVAL_STATUS ( 'not_yet_approved' ) ;
#187 = CC_DESIGN_APPROVAL ( #75, ( #68 ) ) ;
#188 = DATE_TIME_ROLE ( 'classification_date' ) ;
#189 = EDGE_CURVE ( 'NONE', #8, #97, #154, .T. ) ;
#190 = LOCAL_TIME ( 10, 35, 8.000000000000000000, #91 ) ;
#191 = ORIENTED_EDGE ( 'NONE', *, *, #6, .T. ) ;
#192 = AXIS2_PLACEMENT_3D ( 'NONE', #12, #13, #70 ) ;
#193 = FACE_OUTER_BOUND ( 'NONE', #47, .T. ) ;
#194 = ADVANCED_FACE ( 'NONE', ( #193 ), #195, .T. ) ;
#195 = CYLINDRICAL_SURFACE ( 'NONE', #139, 6.349999999999999645 ) ;
#196 = LINE ( 'NONE', #116, #144 ) ;
#197 = AXIS2_PLACEMENT_3D ( 'NONE', #133, #74, #131 ) ;
#198 = DIRECTION ( 'NONE',  ( 1.224646799147353207E-16, -1.000000000000000000, 0.000000000000000000 ) ) ;
#199 = DIRECTION ( 'NONE',  ( 0.000000000000000000, -1.000000000000000000, -0.000000000000000000 ) ) ;
#200 = LOCAL_TIME ( 10, 35, 8.000000000000000000, #17 ) ;
#201 = DIRECTION ( 'NONE',  ( 1.000000000000000000, 0.000000000000000000, 0.000000000000000000 ) ) ;
ENDSEC;
END-ISO-10303-21;
