ISO-10303-21;
HEADER;
FILE_DESCRIPTION (( 'STEP AP203' ),
    '1' );
FILE_NAME ('010-1111T6_UVFS_PCV_window.STEP',
    '2021-02-25T10:36:45',
    ( '' ),
    ( '' ),
    'SwSTEP 2.0',
    'SolidWorks 2019',
    '' );
FILE_SCHEMA (( 'CONFIG_CONTROL_DESIGN' ));
ENDSEC;

DATA;
#1 = ORGANIZATION ( 'UNSPECIFIED', 'UNSPECIFIED', '' ) ;
#2 = ORIENTED_EDGE ( 'NONE', *, *, #107, .F. ) ;
#3 = ORIENTED_EDGE ( 'NONE', *, *, #36, .T. ) ;
#4 = ORIENTED_EDGE ( 'NONE', *, *, #36, .F. ) ;
#5 = CARTESIAN_POINT ( 'NONE',  ( 0.000000000000000000, 0.000000000000000000, 0.000000000000000000 ) ) ;
#6 = CC_DESIGN_DATE_AND_TIME_ASSIGNMENT ( #62, #122, ( #180 ) ) ;
#7 = DATE_AND_TIME ( #152, #13 ) ;
#8 = CIRCLE ( 'NONE', #99, 300.0000000000000568 ) ;
#9 = DIRECTION ( 'NONE',  ( 0.000000000000000000, 0.000000000000000000, 1.000000000000000000 ) ) ;
#10 = DESIGN_CONTEXT ( 'detailed design', #106, 'design' ) ;
#11 = APPLICATION_PROTOCOL_DEFINITION ( 'international standard', 'config_control_design', 1994, #126 ) ;
#12 = PERSON_AND_ORGANIZATION_ROLE ( 'creator' ) ;
#13 = LOCAL_TIME ( 12, 36, 45.00000000000000000, #25 ) ;
#14 = EDGE_CURVE ( 'NONE', #45, #79, #61, .T. ) ;
#15 = ORIENTED_EDGE ( 'NONE', *, *, #123, .F. ) ;
#16 = CIRCLE ( 'NONE', #100, 6.350000000002896883 ) ;
#17 = ORIENTED_EDGE ( 'NONE', *, *, #159, .T. ) ;
#18 = ORIENTED_EDGE ( 'NONE', *, *, #172, .T. ) ;
#19 = ORIENTED_EDGE ( 'NONE', *, *, #159, .F. ) ;
#20 = DIRECTION ( 'NONE',  ( 0.000000000000000000, 1.000000000000000000, -0.000000000000000000 ) ) ;
#21 = LINE ( 'NONE', #97, #91 ) ;
#22 = CC_DESIGN_PERSON_AND_ORGANIZATION_ASSIGNMENT ( #138, #198, ( #142 ) ) ;
#23 = DIRECTION ( 'NONE',  ( 0.000000000000000000, -1.000000000000000000, -0.000000000000000000 ) ) ;
#24 = SPHERICAL_SURFACE ( 'NONE', #155, 300.0000000000000568 ) ;
#25 = COORDINATED_UNIVERSAL_TIME_OFFSET ( 2, 0, .AHEAD. ) ;
#26 = CALENDAR_DATE ( 2021, 25, 2 ) ;
#27 = APPLICATION_PROTOCOL_DEFINITION ( 'international standard', 'config_control_design', 1994, #106 ) ;
#28 = CC_DESIGN_APPROVAL ( #146, ( #180 ) ) ;
#29 = CALENDAR_DATE ( 2021, 25, 2 ) ;
#30 = AXIS2_PLACEMENT_3D ( 'NONE', #169, #9, #137 ) ;
#31 = ORIENTED_EDGE ( 'NONE', *, *, #14, .T. ) ;
#32 = CIRCLE ( 'NONE', #171, 300.0000000000000568 ) ;
#33 = EDGE_LOOP ( 'NONE', ( #2, #65, #18, #17 ) ) ;
#34 = DIRECTION ( 'NONE',  ( 1.000000000000000000, 0.000000000000000000, 0.000000000000000000 ) ) ;
#35 = FACE_OUTER_BOUND ( 'NONE', #190, .T. ) ;
#36 = EDGE_CURVE ( 'NONE', #127, #156, #193, .T. ) ;
#37 = CARTESIAN_POINT ( 'NONE',  ( 0.000000000000000000, 0.000000000000000000, 6.000000000000000000 ) ) ;
#38 = AXIS2_PLACEMENT_3D ( 'NONE', #174, #88, #102 ) ;
#39 = FACE_OUTER_BOUND ( 'NONE', #68, .T. ) ;
#40 = PERSON_AND_ORGANIZATION ( #83, #1 ) ;
#41 = CYLINDRICAL_SURFACE ( 'NONE', #38, 6.349999999999999645 ) ;
#42 = PERSON_AND_ORGANIZATION_ROLE ( 'design_owner' ) ;
#43 = APPROVAL_STATUS ( 'not_yet_approved' ) ;
#44 = APPROVAL_PERSON_ORGANIZATION ( #40, #90, #54 ) ;
#45 = VERTEX_POINT ( 'NONE', #46 ) ;
#46 = CARTESIAN_POINT ( 'NONE',  ( -6.350000000002859579, 0.000000000000000000, 6.000000000000005329 ) ) ;
#47 = EDGE_CURVE ( 'NONE', #79, #109, #8, .T. ) ;
#48 = DIRECTION ( 'NONE',  ( 1.000000000000000000, 0.000000000000000000, 0.000000000000000000 ) ) ;
#49 = DIRECTION ( 'NONE',  ( 1.224646799147353207E-16, -1.000000000000000000, 0.000000000000000000 ) ) ;
#50 = CARTESIAN_POINT ( 'NONE',  ( 3.816391647148975608E-14, 0.000000000000000000, 6.000000000000005329 ) ) ;
#51 = CARTESIAN_POINT ( 'NONE',  ( 3.816391647148975608E-14, 0.000000000000000000, 305.9327883043132488 ) ) ;
#52 = PRODUCT_DEFINITION_FORMATION_WITH_SPECIFIED_SOURCE ( 'ANY', '', #117, .NOT_KNOWN. ) ;
#53 =( NAMED_UNIT ( * ) SI_UNIT ( $, .STERADIAN. ) SOLID_ANGLE_UNIT ( ) );
#54 = APPROVAL_ROLE ( '' ) ;
#55 = PRODUCT_DEFINITION_SHAPE ( 'NONE', 'NONE',  #180 ) ;
#56 = CARTESIAN_POINT ( 'NONE',  ( 0.000000000000000000, 0.000000000000000000, 0.000000000000000000 ) ) ;
#57 = APPROVAL_DATE_TIME ( #92, #146 ) ;
#58 = LOCAL_TIME ( 12, 36, 45.00000000000000000, #164 ) ;
#59 = CC_DESIGN_PERSON_AND_ORGANIZATION_ASSIGNMENT ( #72, #135, ( #52 ) ) ;
#60 = APPROVAL_STATUS ( 'not_yet_approved' ) ;
#61 = CIRCLE ( 'NONE', #124, 6.350000000002896883 ) ;
#62 = DATE_AND_TIME ( #200, #199 ) ;
#63 =( GEOMETRIC_REPRESENTATION_CONTEXT ( 3 ) GLOBAL_UNCERTAINTY_ASSIGNED_CONTEXT ( ( #81 ) ) GLOBAL_UNIT_ASSIGNED_CONTEXT ( ( #149, #131, #53 ) ) REPRESENTATION_CONTEXT ( 'NONE', 'WORKASPACE' ) );
#64 = EDGE_LOOP ( 'NONE', ( #112, #15, #170 ) ) ;
#65 = ORIENTED_EDGE ( 'NONE', *, *, #123, .T. ) ;
#66 = APPROVAL ( #43, 'UNSPECIFIED' ) ;
#67 = CLOSED_SHELL ( 'NONE', ( #195, #118, #73, #101, #80 ) ) ;
#68 = EDGE_LOOP ( 'NONE', ( #19, #4 ) ) ;
#69 = CARTESIAN_POINT ( 'NONE',  ( 6.350000000002935074, 7.776507174589287397E-16, 6.000000000000005329 ) ) ;
#70 = DIRECTION ( 'NONE',  ( 0.000000000000000000, 0.000000000000000000, 1.000000000000000000 ) ) ;
#71 = SPHERICAL_SURFACE ( 'NONE', #108, 300.0000000000000568 ) ;
#72 = PERSON_AND_ORGANIZATION ( #83, #1 ) ;
#73 = ADVANCED_FACE ( 'NONE', ( #84 ), #147, .T. ) ;
#74 = DATE_AND_TIME ( #26, #189 ) ;
#75 = AXIS2_PLACEMENT_3D ( 'NONE', #56, #113, #160 ) ;
#76 = ADVANCED_BREP_SHAPE_REPRESENTATION ( '010-1111T6_UVFS_PCV_window', ( #196, #30 ), #63 ) ;
#77 = EDGE_LOOP ( 'NONE', ( #158, #175, #129 ) ) ;
#78 = APPROVAL_PERSON_ORGANIZATION ( #185, #66, #163 ) ;
#79 = VERTEX_POINT ( 'NONE', #69 ) ;
#80 = ADVANCED_FACE ( 'NONE', ( #116 ), #24, .F. ) ;
#81 = UNCERTAINTY_MEASURE_WITH_UNIT (LENGTH_MEASURE( 1.000000000000000082E-05 ), #149, 'distance_accuracy_value', 'NONE');
#82 = LINE ( 'NONE', #98, #132 ) ;
#83 = PERSON ( 'UNSPECIFIED', 'UNSPECIFIED', 'UNSPECIFIED', ('UNSPECIFIED'), ('UNSPECIFIED'), ('UNSPECIFIED') ) ;
#84 = FACE_OUTER_BOUND ( 'NONE', #33, .T. ) ;
#85 = CARTESIAN_POINT ( 'NONE',  ( 3.816391647148975608E-14, 0.000000000000000000, 305.9327883043132488 ) ) ;
#86 = CARTESIAN_POINT ( 'NONE',  ( 0.000000000000000000, 0.000000000000000000, 0.000000000000000000 ) ) ;
#87 = DIRECTION ( 'NONE',  ( 1.000000000000000000, 0.000000000000000000, 0.000000000000000000 ) ) ;
#88 = DIRECTION ( 'NONE',  ( -0.000000000000000000, -0.000000000000000000, -1.000000000000000000 ) ) ;
#89 = APPROVAL_DATE_TIME ( #74, #90 ) ;
#90 = APPROVAL ( #60, 'UNSPECIFIED' ) ;
#91 = VECTOR ( 'NONE', #119, 1000.000000000000000 ) ;
#92 = DATE_AND_TIME ( #29, #114 ) ;
#93 = EDGE_CURVE ( 'NONE', #45, #109, #32, .T. ) ;
#94 = CARTESIAN_POINT ( 'NONE',  ( -6.349999999999999645, 0.000000000000000000, 0.000000000000000000 ) ) ;
#95 = DIRECTION ( 'NONE',  ( -0.000000000000000000, -0.000000000000000000, -1.000000000000000000 ) ) ;
#96 = DIRECTION ( 'NONE',  ( -1.000000000000000000, 0.000000000000000000, 0.000000000000000000 ) ) ;
#97 = CARTESIAN_POINT ( 'NONE',  ( -6.349999999999999645, 0.000000000000000000, 6.000000000000000000 ) ) ;
#98 = CARTESIAN_POINT ( 'NONE',  ( 6.349999999999999645, 7.776507174585692163E-16, 6.000000000000000000 ) ) ;
#99 = AXIS2_PLACEMENT_3D ( 'NONE', #110, #20, #70 ) ;
#100 = AXIS2_PLACEMENT_3D ( 'NONE', #151, #194, #179 ) ;
#101 = ADVANCED_FACE ( 'NONE', ( #39 ), #162, .F. ) ;
#102 = DIRECTION ( 'NONE',  ( -1.000000000000000000, 0.000000000000000000, 0.000000000000000000 ) ) ;
#103 = COORDINATED_UNIVERSAL_TIME_OFFSET ( 2, 0, .AHEAD. ) ;
#104 = APPROVAL_ROLE ( '' ) ;
#105 = AXIS2_PLACEMENT_3D ( 'NONE', #37, #95, #96 ) ;
#106 = APPLICATION_CONTEXT ( 'configuration controlled 3d designs of mechanical parts and assemblies' ) ;
#107 = EDGE_CURVE ( 'NONE', #79, #127, #82, .T. ) ;
#108 = AXIS2_PLACEMENT_3D ( 'NONE', #51, #23, #87 ) ;
#109 = VERTEX_POINT ( 'NONE', #130 ) ;
#110 = CARTESIAN_POINT ( 'NONE',  ( 3.816391647148975608E-14, 0.000000000000000000, 305.9327883043132488 ) ) ;
#111 = DIRECTION ( 'NONE',  ( 1.000000000000000000, 1.224646799147353207E-16, 0.000000000000000000 ) ) ;
#112 = ORIENTED_EDGE ( 'NONE', *, *, #93, .F. ) ;
#113 = DIRECTION ( 'NONE',  ( 0.000000000000000000, 0.000000000000000000, 1.000000000000000000 ) ) ;
#114 = LOCAL_TIME ( 12, 36, 45.00000000000000000, #139 ) ;
#115 = DIRECTION ( 'NONE',  ( -0.000000000000000000, -0.000000000000000000, -1.000000000000000000 ) ) ;
#116 = FACE_OUTER_BOUND ( 'NONE', #64, .T. ) ;
#117 = PRODUCT ( '010-1111T6_UVFS_PCV_window', '010-1111T6_UVFS_PCV_window', '', ( #197 ) ) ;
#118 = ADVANCED_FACE ( 'NONE', ( #35 ), #41, .T. ) ;
#119 = DIRECTION ( 'NONE',  ( -0.000000000000000000, -0.000000000000000000, -1.000000000000000000 ) ) ;
#120 = CC_DESIGN_APPROVAL ( #66, ( #52 ) ) ;
#121 = PERSON_AND_ORGANIZATION ( #83, #1 ) ;
#122 = DATE_TIME_ROLE ( 'creation_date' ) ;
#123 = EDGE_CURVE ( 'NONE', #79, #45, #16, .T. ) ;
#124 = AXIS2_PLACEMENT_3D ( 'NONE', #50, #143, #48 ) ;
#125 = APPROVAL_PERSON_ORGANIZATION ( #183, #146, #104 ) ;
#126 = APPLICATION_CONTEXT ( 'configuration controlled 3d designs of mechanical parts and assemblies' ) ;
#127 = VERTEX_POINT ( 'NONE', #134 ) ;
#128 = CC_DESIGN_PERSON_AND_ORGANIZATION_ASSIGNMENT ( #136, #166, ( #52 ) ) ;
#129 = ORIENTED_EDGE ( 'NONE', *, *, #47, .F. ) ;
#130 = CARTESIAN_POINT ( 'NONE',  ( 5.653361845870005985E-14, 0.000000000000000000, 5.932788304313207917 ) ) ;
#131 =( NAMED_UNIT ( * ) PLANE_ANGLE_UNIT ( ) SI_UNIT ( $, .RADIAN. ) );
#132 = VECTOR ( 'NONE', #115, 1000.000000000000000 ) ;
#133 = DIRECTION ( 'NONE',  ( 1.000000000000000000, 0.000000000000000000, -0.000000000000000000 ) ) ;
#134 = CARTESIAN_POINT ( 'NONE',  ( 6.349999999999999645, 7.776507174585692163E-16, 0.000000000000000000 ) ) ;
#135 = PERSON_AND_ORGANIZATION_ROLE ( 'creator' ) ;
#136 = PERSON_AND_ORGANIZATION ( #83, #1 ) ;
#137 = DIRECTION ( 'NONE',  ( 1.000000000000000000, 0.000000000000000000, 0.000000000000000000 ) ) ;
#138 = PERSON_AND_ORGANIZATION ( #83, #1 ) ;
#139 = COORDINATED_UNIVERSAL_TIME_OFFSET ( 2, 0, .AHEAD. ) ;
#140 = COORDINATED_UNIVERSAL_TIME_OFFSET ( 2, 0, .AHEAD. ) ;
#141 = PRODUCT_RELATED_PRODUCT_CATEGORY ( 'detail', '', ( #117 ) ) ;
#142 = SECURITY_CLASSIFICATION ( '', '', #168 ) ;
#143 = DIRECTION ( 'NONE',  ( -0.000000000000000000, -0.000000000000000000, -1.000000000000000000 ) ) ;
#144 = DIRECTION ( 'NONE',  ( 0.000000000000000000, -1.000000000000000000, -0.000000000000000000 ) ) ;
#145 = AXIS2_PLACEMENT_3D ( 'NONE', #86, #173, #34 ) ;
#146 = APPROVAL ( #153, 'UNSPECIFIED' ) ;
#147 = CYLINDRICAL_SURFACE ( 'NONE', #105, 6.349999999999999645 ) ;
#148 = FACE_OUTER_BOUND ( 'NONE', #77, .T. ) ;
#149 =( LENGTH_UNIT ( ) NAMED_UNIT ( * ) SI_UNIT ( .MILLI., .METRE. ) );
#150 = DATE_TIME_ROLE ( 'classification_date' ) ;
#151 = CARTESIAN_POINT ( 'NONE',  ( 3.816391647148975608E-14, 0.000000000000000000, 6.000000000000005329 ) ) ;
#152 = CALENDAR_DATE ( 2021, 25, 2 ) ;
#153 = APPROVAL_STATUS ( 'not_yet_approved' ) ;
#154 = PERSON_AND_ORGANIZATION ( #83, #1 ) ;
#155 = AXIS2_PLACEMENT_3D ( 'NONE', #176, #144, #177 ) ;
#156 = VERTEX_POINT ( 'NONE', #94 ) ;
#157 = CC_DESIGN_SECURITY_CLASSIFICATION ( #142, ( #52 ) ) ;
#158 = ORIENTED_EDGE ( 'NONE', *, *, #14, .F. ) ;
#159 = EDGE_CURVE ( 'NONE', #156, #127, #188, .T. ) ;
#160 = DIRECTION ( 'NONE',  ( 1.000000000000000000, 0.000000000000000000, 0.000000000000000000 ) ) ;
#161 = AXIS2_PLACEMENT_3D ( 'NONE', #5, #192, #133 ) ;
#162 = PLANE ( 'NONE',  #161 ) ;
#163 = APPROVAL_ROLE ( '' ) ;
#164 = COORDINATED_UNIVERSAL_TIME_OFFSET ( 2, 0, .AHEAD. ) ;
#165 = CC_DESIGN_PERSON_AND_ORGANIZATION_ASSIGNMENT ( #154, #12, ( #180 ) ) ;
#166 = PERSON_AND_ORGANIZATION_ROLE ( 'design_supplier' ) ;
#167 = CC_DESIGN_APPROVAL ( #90, ( #142 ) ) ;
#168 = SECURITY_CLASSIFICATION_LEVEL ( 'unclassified' ) ;
#169 = CARTESIAN_POINT ( 'NONE',  ( 0.000000000000000000, 0.000000000000000000, 0.000000000000000000 ) ) ;
#170 = ORIENTED_EDGE ( 'NONE', *, *, #47, .T. ) ;
#171 = AXIS2_PLACEMENT_3D ( 'NONE', #85, #49, #111 ) ;
#172 = EDGE_CURVE ( 'NONE', #45, #156, #21, .T. ) ;
#173 = DIRECTION ( 'NONE',  ( 0.000000000000000000, 0.000000000000000000, 1.000000000000000000 ) ) ;
#174 = CARTESIAN_POINT ( 'NONE',  ( 0.000000000000000000, 0.000000000000000000, 6.000000000000000000 ) ) ;
#175 = ORIENTED_EDGE ( 'NONE', *, *, #93, .T. ) ;
#176 = CARTESIAN_POINT ( 'NONE',  ( 3.816391647148975608E-14, 0.000000000000000000, 305.9327883043132488 ) ) ;
#177 = DIRECTION ( 'NONE',  ( 1.000000000000000000, 0.000000000000000000, 0.000000000000000000 ) ) ;
#178 = CALENDAR_DATE ( 2021, 25, 2 ) ;
#179 = DIRECTION ( 'NONE',  ( 1.000000000000000000, 0.000000000000000000, 0.000000000000000000 ) ) ;
#180 = PRODUCT_DEFINITION ( 'UNKNOWN', '', #52, #10 ) ;
#181 = APPROVAL_DATE_TIME ( #7, #66 ) ;
#182 = DATE_AND_TIME ( #178, #58 ) ;
#183 = PERSON_AND_ORGANIZATION ( #83, #1 ) ;
#184 = SHAPE_DEFINITION_REPRESENTATION ( #55, #76 ) ;
#185 = PERSON_AND_ORGANIZATION ( #83, #1 ) ;
#186 = CC_DESIGN_DATE_AND_TIME_ASSIGNMENT ( #182, #150, ( #142 ) ) ;
#187 = ORIENTED_EDGE ( 'NONE', *, *, #107, .T. ) ;
#188 = CIRCLE ( 'NONE', #75, 6.349999999999999645 ) ;
#189 = LOCAL_TIME ( 12, 36, 45.00000000000000000, #103 ) ;
#190 = EDGE_LOOP ( 'NONE', ( #31, #187, #3, #191 ) ) ;
#191 = ORIENTED_EDGE ( 'NONE', *, *, #172, .F. ) ;
#192 = DIRECTION ( 'NONE',  ( 0.000000000000000000, 0.000000000000000000, 1.000000000000000000 ) ) ;
#193 = CIRCLE ( 'NONE', #145, 6.349999999999999645 ) ;
#194 = DIRECTION ( 'NONE',  ( -0.000000000000000000, -0.000000000000000000, -1.000000000000000000 ) ) ;
#195 = ADVANCED_FACE ( 'NONE', ( #148 ), #71, .F. ) ;
#196 = MANIFOLD_SOLID_BREP ( 'Cut-Revolve1', #67 ) ;
#197 = MECHANICAL_CONTEXT ( 'NONE', #126, 'mechanical' ) ;
#198 = PERSON_AND_ORGANIZATION_ROLE ( 'classification_officer' ) ;
#199 = LOCAL_TIME ( 12, 36, 45.00000000000000000, #140 ) ;
#200 = CALENDAR_DATE ( 2021, 25, 2 ) ;
#201 = CC_DESIGN_PERSON_AND_ORGANIZATION_ASSIGNMENT ( #121, #42, ( #117 ) ) ;
ENDSEC;
END-ISO-10303-21;
