ISO-10303-21;
HEADER;
FILE_DESCRIPTION (( 'STEP AP203' ),
    '1' );
FILE_NAME ('010-1111E_UVFS_PCV_window.STEP',
    '2021-02-25T08:34:41',
    ( '' ),
    ( '' ),
    'SwSTEP 2.0',
    'SolidWorks 2019',
    '' );
FILE_SCHEMA (( 'CONFIG_CONTROL_DESIGN' ));
ENDSEC;

DATA;
#1 = PERSON_AND_ORGANIZATION_ROLE ( 'creator' ) ;
#2 = APPROVAL_DATE_TIME ( #112, #62 ) ;
#3 = PERSON_AND_ORGANIZATION ( #77, #22 ) ;
#4 = PERSON_AND_ORGANIZATION_ROLE ( 'classification_officer' ) ;
#5 = AXIS2_PLACEMENT_3D ( 'NONE', #106, #29, #27 ) ;
#6 = COORDINATED_UNIVERSAL_TIME_OFFSET ( 2, 0, .AHEAD. ) ;
#7 = ORIENTED_EDGE ( 'NONE', *, *, #119, .F. ) ;
#8 = EDGE_CURVE ( 'NONE', #147, #162, #150, .T. ) ;
#9 = ORIENTED_EDGE ( 'NONE', *, *, #8, .F. ) ;
#10 = CC_DESIGN_APPROVAL ( #184, ( #82 ) ) ;
#11 = CARTESIAN_POINT ( 'NONE',  ( 5.653361845870005354E-14, 0.000000000000000000, 2.932788304313316274 ) ) ;
#12 = FACE_OUTER_BOUND ( 'NONE', #115, .T. ) ;
#13 = MANIFOLD_SOLID_BREP ( 'Cut-Revolve1', #122 ) ;
#14 = DIRECTION ( 'NONE',  ( 0.000000000000000000, 0.000000000000000000, 1.000000000000000000 ) ) ;
#15 = LOCAL_TIME ( 10, 34, 41.00000000000000000, #65 ) ;
#16 = CARTESIAN_POINT ( 'NONE',  ( 3.816391647148975608E-14, 0.000000000000000000, 3.000000000000002665 ) ) ;
#17 = CIRCLE ( 'NONE', #127, 299.9999999999999432 ) ;
#18 = SPHERICAL_SURFACE ( 'NONE', #60, 299.9999999999999432 ) ;
#19 = PERSON_AND_ORGANIZATION ( #77, #22 ) ;
#20 = CIRCLE ( 'NONE', #130, 6.349999999997432809 ) ;
#21 = APPROVAL_ROLE ( '' ) ;
#22 = ORGANIZATION ( 'UNSPECIFIED', 'UNSPECIFIED', '' ) ;
#23 = APPROVAL_DATE_TIME ( #155, #184 ) ;
#24 = EDGE_LOOP ( 'NONE', ( #87, #174, #52 ) ) ;
#25 = DIRECTION ( 'NONE',  ( 1.000000000000000000, 0.000000000000000000, 0.000000000000000000 ) ) ;
#26 = ORIENTED_EDGE ( 'NONE', *, *, #192, .T. ) ;
#27 = DIRECTION ( 'NONE',  ( 1.000000000000000000, 1.224646799147353207E-16, 0.000000000000000000 ) ) ;
#28 = ORIENTED_EDGE ( 'NONE', *, *, #69, .T. ) ;
#29 = DIRECTION ( 'NONE',  ( 1.224646799147353207E-16, -1.000000000000000000, 0.000000000000000000 ) ) ;
#30 = APPROVAL_ROLE ( '' ) ;
#31 = ORIENTED_EDGE ( 'NONE', *, *, #97, .T. ) ;
#32 = DIRECTION ( 'NONE',  ( -0.000000000000000000, -0.000000000000000000, -1.000000000000000000 ) ) ;
#33 = EDGE_LOOP ( 'NONE', ( #101, #28, #7 ) ) ;
#34 =( GEOMETRIC_REPRESENTATION_CONTEXT ( 3 ) GLOBAL_UNCERTAINTY_ASSIGNED_CONTEXT ( ( #42 ) ) GLOBAL_UNIT_ASSIGNED_CONTEXT ( ( #57, #124, #153 ) ) REPRESENTATION_CONTEXT ( 'NONE', 'WORKASPACE' ) );
#35 = CARTESIAN_POINT ( 'NONE',  ( 3.816391647148975608E-14, 0.000000000000000000, 3.000000000000002665 ) ) ;
#36 = CC_DESIGN_PERSON_AND_ORGANIZATION_ASSIGNMENT ( #3, #4, ( #183 ) ) ;
#37 = CARTESIAN_POINT ( 'NONE',  ( 6.349999999999999645, 7.776507174585692163E-16, 0.000000000000000000 ) ) ;
#38 = PERSON_AND_ORGANIZATION ( #77, #22 ) ;
#39 = LINE ( 'NONE', #201, #90 ) ;
#40 = CIRCLE ( 'NONE', #5, 299.9999999999999432 ) ;
#41 = LOCAL_TIME ( 10, 34, 41.00000000000000000, #142 ) ;
#42 = UNCERTAINTY_MEASURE_WITH_UNIT (LENGTH_MEASURE( 1.000000000000000082E-05 ), #57, 'distance_accuracy_value', 'NONE');
#43 = SHAPE_DEFINITION_REPRESENTATION ( #68, #177 ) ;
#44 = AXIS2_PLACEMENT_3D ( 'NONE', #53, #14, #51 ) ;
#45 = CC_DESIGN_SECURITY_CLASSIFICATION ( #183, ( #196 ) ) ;
#46 = DATE_TIME_ROLE ( 'creation_date' ) ;
#47 = PERSON_AND_ORGANIZATION ( #77, #22 ) ;
#48 = VERTEX_POINT ( 'NONE', #78 ) ;
#49 = AXIS2_PLACEMENT_3D ( 'NONE', #152, #75, #25 ) ;
#50 = CC_DESIGN_PERSON_AND_ORGANIZATION_ASSIGNMENT ( #19, #63, ( #196 ) ) ;
#51 = DIRECTION ( 'NONE',  ( 1.000000000000000000, 0.000000000000000000, -0.000000000000000000 ) ) ;
#52 = ORIENTED_EDGE ( 'NONE', *, *, #119, .T. ) ;
#53 = CARTESIAN_POINT ( 'NONE',  ( 0.000000000000000000, 0.000000000000000000, 0.000000000000000000 ) ) ;
#54 = CARTESIAN_POINT ( 'NONE',  ( 3.816391647148975608E-14, 0.000000000000000000, 302.9327883043132488 ) ) ;
#55 = DIRECTION ( 'NONE',  ( 1.000000000000000000, 0.000000000000000000, 0.000000000000000000 ) ) ;
#56 = DIRECTION ( 'NONE',  ( -1.000000000000000000, 0.000000000000000000, 0.000000000000000000 ) ) ;
#57 =( LENGTH_UNIT ( ) NAMED_UNIT ( * ) SI_UNIT ( .MILLI., .METRE. ) );
#58 = ADVANCED_FACE ( 'NONE', ( #193 ), #194, .T. ) ;
#59 = APPLICATION_PROTOCOL_DEFINITION ( 'international standard', 'config_control_design', 1994, #123 ) ;
#60 = AXIS2_PLACEMENT_3D ( 'NONE', #199, #61, #81 ) ;
#61 = DIRECTION ( 'NONE',  ( 0.000000000000000000, -1.000000000000000000, -0.000000000000000000 ) ) ;
#62 = APPROVAL ( #110, 'UNSPECIFIED' ) ;
#63 = PERSON_AND_ORGANIZATION_ROLE ( 'creator' ) ;
#64 = PRODUCT_RELATED_PRODUCT_CATEGORY ( 'detail', '', ( #102 ) ) ;
#65 = COORDINATED_UNIVERSAL_TIME_OFFSET ( 2, 0, .AHEAD. ) ;
#66 = DATE_AND_TIME ( #125, #94 ) ;
#67 = APPROVAL_PERSON_ORGANIZATION ( #47, #184, #30 ) ;
#68 = PRODUCT_DEFINITION_SHAPE ( 'NONE', 'NONE',  #82 ) ;
#69 = EDGE_CURVE ( 'NONE', #89, #91, #40, .T. ) ;
#70 = DIRECTION ( 'NONE',  ( 0.000000000000000000, 0.000000000000000000, 1.000000000000000000 ) ) ;
#71 = DIRECTION ( 'NONE',  ( -0.000000000000000000, -0.000000000000000000, -1.000000000000000000 ) ) ;
#72 = AXIS2_PLACEMENT_3D ( 'NONE', #160, #70, #103 ) ;
#73 = ORIENTED_EDGE ( 'NONE', *, *, #97, .F. ) ;
#74 = ADVANCED_FACE ( 'NONE', ( #149 ), #120, .F. ) ;
#75 = DIRECTION ( 'NONE',  ( 0.000000000000000000, 0.000000000000000000, 1.000000000000000000 ) ) ;
#76 = CYLINDRICAL_SURFACE ( 'NONE', #170, 6.349999999999999645 ) ;
#77 = PERSON ( 'UNSPECIFIED', 'UNSPECIFIED', 'UNSPECIFIED', ('UNSPECIFIED'), ('UNSPECIFIED'), ('UNSPECIFIED') ) ;
#78 = CARTESIAN_POINT ( 'NONE',  ( 6.349999999997471001, 7.776507174584144023E-16, 3.000000000000002665 ) ) ;
#79 = DIRECTION ( 'NONE',  ( -0.000000000000000000, -0.000000000000000000, -1.000000000000000000 ) ) ;
#80 = CC_DESIGN_PERSON_AND_ORGANIZATION_ASSIGNMENT ( #146, #143, ( #196 ) ) ;
#81 = DIRECTION ( 'NONE',  ( 1.000000000000000000, 0.000000000000000000, 0.000000000000000000 ) ) ;
#82 = PRODUCT_DEFINITION ( 'UNKNOWN', '', #196, #139 ) ;
#83 = CALENDAR_DATE ( 2021, 25, 2 ) ;
#84 = APPROVAL_DATE_TIME ( #157, #156 ) ;
#85 = COORDINATED_UNIVERSAL_TIME_OFFSET ( 2, 0, .AHEAD. ) ;
#86 = CC_DESIGN_DATE_AND_TIME_ASSIGNMENT ( #66, #126, ( #183 ) ) ;
#87 = ORIENTED_EDGE ( 'NONE', *, *, #69, .F. ) ;
#88 = DIRECTION ( 'NONE',  ( 0.000000000000000000, 0.000000000000000000, 1.000000000000000000 ) ) ;
#89 = VERTEX_POINT ( 'NONE', #137 ) ;
#90 = VECTOR ( 'NONE', #197, 1000.000000000000000 ) ;
#91 = VERTEX_POINT ( 'NONE', #11 ) ;
#92 = DIRECTION ( 'NONE',  ( 1.000000000000000000, 0.000000000000000000, 0.000000000000000000 ) ) ;
#93 = CARTESIAN_POINT ( 'NONE',  ( -6.349999999999999645, 0.000000000000000000, 0.000000000000000000 ) ) ;
#94 = LOCAL_TIME ( 10, 34, 41.00000000000000000, #128 ) ;
#95 = AXIS2_PLACEMENT_3D ( 'NONE', #116, #129, #92 ) ;
#96 = CC_DESIGN_APPROVAL ( #62, ( #183 ) ) ;
#97 = EDGE_CURVE ( 'NONE', #48, #162, #163, .T. ) ;
#98 = PERSON_AND_ORGANIZATION ( #77, #22 ) ;
#99 = CC_DESIGN_DATE_AND_TIME_ASSIGNMENT ( #109, #46, ( #82 ) ) ;
#100 = ORIENTED_EDGE ( 'NONE', *, *, #135, .T. ) ;
#101 = ORIENTED_EDGE ( 'NONE', *, *, #135, .F. ) ;
#102 = PRODUCT ( '010-1111E_UVFS_PCV_window', '010-1111E_UVFS_PCV_window', '', ( #200 ) ) ;
#103 = DIRECTION ( 'NONE',  ( 1.000000000000000000, 0.000000000000000000, 0.000000000000000000 ) ) ;
#104 = FACE_OUTER_BOUND ( 'NONE', #24, .T. ) ;
#105 = ADVANCED_FACE ( 'NONE', ( #133 ), #132, .F. ) ;
#106 = CARTESIAN_POINT ( 'NONE',  ( 3.816391647148975608E-14, 0.000000000000000000, 302.9327883043132488 ) ) ;
#107 = PERSON_AND_ORGANIZATION_ROLE ( 'design_owner' ) ;
#108 = APPLICATION_PROTOCOL_DEFINITION ( 'international standard', 'config_control_design', 1994, #180 ) ;
#109 = DATE_AND_TIME ( #187, #15 ) ;
#110 = APPROVAL_STATUS ( 'not_yet_approved' ) ;
#111 = EDGE_CURVE ( 'NONE', #162, #147, #164, .T. ) ;
#112 = DATE_AND_TIME ( #144, #167 ) ;
#113 = ORIENTED_EDGE ( 'NONE', *, *, #111, .F. ) ;
#114 = AXIS2_PLACEMENT_3D ( 'NONE', #121, #154, #181 ) ;
#115 = EDGE_LOOP ( 'NONE', ( #73, #26, #191, #189 ) ) ;
#116 = CARTESIAN_POINT ( 'NONE',  ( 3.816391647148975608E-14, 0.000000000000000000, 302.9327883043132488 ) ) ;
#117 = DIRECTION ( 'NONE',  ( 0.000000000000000000, 1.000000000000000000, -0.000000000000000000 ) ) ;
#118 = APPROVAL_PERSON_ORGANIZATION ( #185, #62, #171 ) ;
#119 = EDGE_CURVE ( 'NONE', #48, #91, #17, .T. ) ;
#120 = PLANE ( 'NONE',  #44 ) ;
#121 = CARTESIAN_POINT ( 'NONE',  ( 0.000000000000000000, 0.000000000000000000, 0.000000000000000000 ) ) ;
#122 = CLOSED_SHELL ( 'NONE', ( #105, #58, #161, #74, #168 ) ) ;
#123 = APPLICATION_CONTEXT ( 'configuration controlled 3d designs of mechanical parts and assemblies' ) ;
#124 =( NAMED_UNIT ( * ) PLANE_ANGLE_UNIT ( ) SI_UNIT ( $, .RADIAN. ) );
#125 = CALENDAR_DATE ( 2021, 25, 2 ) ;
#126 = DATE_TIME_ROLE ( 'classification_date' ) ;
#127 = AXIS2_PLACEMENT_3D ( 'NONE', #54, #117, #88 ) ;
#128 = COORDINATED_UNIVERSAL_TIME_OFFSET ( 2, 0, .AHEAD. ) ;
#129 = DIRECTION ( 'NONE',  ( 0.000000000000000000, -1.000000000000000000, -0.000000000000000000 ) ) ;
#130 = AXIS2_PLACEMENT_3D ( 'NONE', #16, #79, #138 ) ;
#131 = ORIENTED_EDGE ( 'NONE', *, *, #111, .T. ) ;
#132 = SPHERICAL_SURFACE ( 'NONE', #95, 299.9999999999999432 ) ;
#133 = FACE_OUTER_BOUND ( 'NONE', #33, .T. ) ;
#134 = CARTESIAN_POINT ( 'NONE',  ( 0.000000000000000000, 0.000000000000000000, 3.000000000000000000 ) ) ;
#135 = EDGE_CURVE ( 'NONE', #89, #48, #151, .T. ) ;
#136 = CC_DESIGN_APPROVAL ( #156, ( #196 ) ) ;
#137 = CARTESIAN_POINT ( 'NONE',  ( -6.349999999997394617, 0.000000000000000000, 3.000000000000002665 ) ) ;
#138 = DIRECTION ( 'NONE',  ( 1.000000000000000000, 0.000000000000000000, 0.000000000000000000 ) ) ;
#139 = DESIGN_CONTEXT ( 'detailed design', #180, 'design' ) ;
#140 = APPROVAL_PERSON_ORGANIZATION ( #159, #156, #21 ) ;
#141 = SECURITY_CLASSIFICATION_LEVEL ( 'unclassified' ) ;
#142 = COORDINATED_UNIVERSAL_TIME_OFFSET ( 2, 0, .AHEAD. ) ;
#143 = PERSON_AND_ORGANIZATION_ROLE ( 'design_supplier' ) ;
#144 = CALENDAR_DATE ( 2021, 25, 2 ) ;
#145 = AXIS2_PLACEMENT_3D ( 'NONE', #35, #166, #55 ) ;
#146 = PERSON_AND_ORGANIZATION ( #77, #22 ) ;
#147 = VERTEX_POINT ( 'NONE', #93 ) ;
#148 = EDGE_LOOP ( 'NONE', ( #100, #31, #131, #173 ) ) ;
#149 = FACE_OUTER_BOUND ( 'NONE', #175, .T. ) ;
#150 = CIRCLE ( 'NONE', #72, 6.349999999999999645 ) ;
#151 = CIRCLE ( 'NONE', #145, 6.349999999997432809 ) ;
#152 = CARTESIAN_POINT ( 'NONE',  ( 0.000000000000000000, 0.000000000000000000, 0.000000000000000000 ) ) ;
#153 =( NAMED_UNIT ( * ) SI_UNIT ( $, .STERADIAN. ) SOLID_ANGLE_UNIT ( ) );
#154 = DIRECTION ( 'NONE',  ( 0.000000000000000000, 0.000000000000000000, 1.000000000000000000 ) ) ;
#155 = DATE_AND_TIME ( #83, #41 ) ;
#156 = APPROVAL ( #172, 'UNSPECIFIED' ) ;
#157 = DATE_AND_TIME ( #169, #198 ) ;
#158 = APPROVAL_STATUS ( 'not_yet_approved' ) ;
#159 = PERSON_AND_ORGANIZATION ( #77, #22 ) ;
#160 = CARTESIAN_POINT ( 'NONE',  ( 0.000000000000000000, 0.000000000000000000, 0.000000000000000000 ) ) ;
#161 = ADVANCED_FACE ( 'NONE', ( #12 ), #76, .T. ) ;
#162 = VERTEX_POINT ( 'NONE', #37 ) ;
#163 = LINE ( 'NONE', #176, #182 ) ;
#164 = CIRCLE ( 'NONE', #49, 6.349999999999999645 ) ;
#165 = CC_DESIGN_PERSON_AND_ORGANIZATION_ASSIGNMENT ( #98, #1, ( #82 ) ) ;
#166 = DIRECTION ( 'NONE',  ( -0.000000000000000000, -0.000000000000000000, -1.000000000000000000 ) ) ;
#167 = LOCAL_TIME ( 10, 34, 41.00000000000000000, #85 ) ;
#168 = ADVANCED_FACE ( 'NONE', ( #104 ), #18, .F. ) ;
#169 = CALENDAR_DATE ( 2021, 25, 2 ) ;
#170 = AXIS2_PLACEMENT_3D ( 'NONE', #134, #195, #179 ) ;
#171 = APPROVAL_ROLE ( '' ) ;
#172 = APPROVAL_STATUS ( 'not_yet_approved' ) ;
#173 = ORIENTED_EDGE ( 'NONE', *, *, #188, .F. ) ;
#174 = ORIENTED_EDGE ( 'NONE', *, *, #192, .F. ) ;
#175 = EDGE_LOOP ( 'NONE', ( #9, #113 ) ) ;
#176 = CARTESIAN_POINT ( 'NONE',  ( 6.349999999999999645, 7.776507174585692163E-16, 3.000000000000000000 ) ) ;
#177 = ADVANCED_BREP_SHAPE_REPRESENTATION ( '010-1111E_UVFS_PCV_window', ( #13, #114 ), #34 ) ;
#178 = CC_DESIGN_PERSON_AND_ORGANIZATION_ASSIGNMENT ( #38, #107, ( #102 ) ) ;
#179 = DIRECTION ( 'NONE',  ( -1.000000000000000000, 0.000000000000000000, 0.000000000000000000 ) ) ;
#180 = APPLICATION_CONTEXT ( 'configuration controlled 3d designs of mechanical parts and assemblies' ) ;
#181 = DIRECTION ( 'NONE',  ( 1.000000000000000000, 0.000000000000000000, 0.000000000000000000 ) ) ;
#182 = VECTOR ( 'NONE', #71, 1000.000000000000000 ) ;
#183 = SECURITY_CLASSIFICATION ( '', '', #141 ) ;
#184 = APPROVAL ( #158, 'UNSPECIFIED' ) ;
#185 = PERSON_AND_ORGANIZATION ( #77, #22 ) ;
#186 = AXIS2_PLACEMENT_3D ( 'NONE', #190, #32, #56 ) ;
#187 = CALENDAR_DATE ( 2021, 25, 2 ) ;
#188 = EDGE_CURVE ( 'NONE', #89, #147, #39, .T. ) ;
#189 = ORIENTED_EDGE ( 'NONE', *, *, #8, .T. ) ;
#190 = CARTESIAN_POINT ( 'NONE',  ( 0.000000000000000000, 0.000000000000000000, 3.000000000000000000 ) ) ;
#191 = ORIENTED_EDGE ( 'NONE', *, *, #188, .T. ) ;
#192 = EDGE_CURVE ( 'NONE', #48, #89, #20, .T. ) ;
#193 = FACE_OUTER_BOUND ( 'NONE', #148, .T. ) ;
#194 = CYLINDRICAL_SURFACE ( 'NONE', #186, 6.349999999999999645 ) ;
#195 = DIRECTION ( 'NONE',  ( -0.000000000000000000, -0.000000000000000000, -1.000000000000000000 ) ) ;
#196 = PRODUCT_DEFINITION_FORMATION_WITH_SPECIFIED_SOURCE ( 'ANY', '', #102, .NOT_KNOWN. ) ;
#197 = DIRECTION ( 'NONE',  ( -0.000000000000000000, -0.000000000000000000, -1.000000000000000000 ) ) ;
#198 = LOCAL_TIME ( 10, 34, 41.00000000000000000, #6 ) ;
#199 = CARTESIAN_POINT ( 'NONE',  ( 3.816391647148975608E-14, 0.000000000000000000, 302.9327883043132488 ) ) ;
#200 = MECHANICAL_CONTEXT ( 'NONE', #123, 'mechanical' ) ;
#201 = CARTESIAN_POINT ( 'NONE',  ( -6.349999999999999645, 0.000000000000000000, 3.000000000000000000 ) ) ;
ENDSEC;
END-ISO-10303-21;
