ISO-10303-21;
HEADER;
FILE_DESCRIPTION (( 'STEP AP203' ),
    '1' );
FILE_NAME ('010-1110T6_UVFS_PCV_window.STEP',
    '2021-02-25T10:36:13',
    ( '' ),
    ( '' ),
    'SwSTEP 2.0',
    'SolidWorks 2019',
    '' );
FILE_SCHEMA (( 'CONFIG_CONTROL_DESIGN' ));
ENDSEC;

DATA;
#1 = APPROVAL_ROLE ( '' ) ;
#2 = APPROVAL_STATUS ( 'not_yet_approved' ) ;
#3 = CC_DESIGN_APPROVAL ( #71, ( #30 ) ) ;
#4 = CIRCLE ( 'NONE', #111, 6.349999999999999645 ) ;
#5 = DESIGN_CONTEXT ( 'detailed design', #183, 'design' ) ;
#6 = EDGE_LOOP ( 'NONE', ( #66, #194 ) ) ;
#7 = DATE_AND_TIME ( #82, #188 ) ;
#8 = EDGE_LOOP ( 'NONE', ( #127, #196, #96, #95 ) ) ;
#9 = CC_DESIGN_DATE_AND_TIME_ASSIGNMENT ( #36, #151, ( #79 ) ) ;
#10 = PERSON_AND_ORGANIZATION ( #93, #123 ) ;
#11 = CARTESIAN_POINT ( 'NONE',  ( 0.000000000000000000, 0.000000000000000000, 6.000000000000000000 ) ) ;
#12 = CIRCLE ( 'NONE', #132, 6.349999999999999645 ) ;
#13 = CARTESIAN_POINT ( 'NONE',  ( 0.000000000000000000, 0.000000000000000000, 0.000000000000000000 ) ) ;
#14 = CARTESIAN_POINT ( 'NONE',  ( 3.209238430557093125E-14, 0.000000000000000000, 6.000000000000005329 ) ) ;
#15 = APPROVAL_STATUS ( 'not_yet_approved' ) ;
#16 = DIRECTION ( 'NONE',  ( 1.000000000000000000, 0.000000000000000000, 0.000000000000000000 ) ) ;
#17 = CALENDAR_DATE ( 2021, 25, 2 ) ;
#18 = DIRECTION ( 'NONE',  ( 1.000000000000000000, 0.000000000000000000, 0.000000000000000000 ) ) ;
#19 =( NAMED_UNIT ( * ) SI_UNIT ( $, .STERADIAN. ) SOLID_ANGLE_UNIT ( ) );
#20 = AXIS2_PLACEMENT_3D ( 'NONE', #87, #136, #45 ) ;
#21 = CC_DESIGN_PERSON_AND_ORGANIZATION_ASSIGNMENT ( #154, #77, ( #148 ) ) ;
#22 = CC_DESIGN_PERSON_AND_ORGANIZATION_ASSIGNMENT ( #122, #120, ( #30 ) ) ;
#23 = SECURITY_CLASSIFICATION ( '', '', #187 ) ;
#24 = AXIS2_PLACEMENT_3D ( 'NONE', #57, #72, #117 ) ;
#25 = VERTEX_POINT ( 'NONE', #39 ) ;
#26 = COORDINATED_UNIVERSAL_TIME_OFFSET ( 2, 0, .AHEAD. ) ;
#27 = DIRECTION ( 'NONE',  ( 1.000000000000000000, 0.000000000000000000, 0.000000000000000000 ) ) ;
#28 = DIRECTION ( 'NONE',  ( 1.000000000000000000, 0.000000000000000000, 0.000000000000000000 ) ) ;
#29 = DIRECTION ( 'NONE',  ( 1.224646799147353207E-16, -1.000000000000000000, 0.000000000000000000 ) ) ;
#30 = PRODUCT_DEFINITION_FORMATION_WITH_SPECIFIED_SOURCE ( 'ANY', '', #148, .NOT_KNOWN. ) ;
#31 = DIRECTION ( 'NONE',  ( 0.000000000000000000, 0.000000000000000000, 1.000000000000000000 ) ) ;
#32 = DIRECTION ( 'NONE',  ( -0.000000000000000000, -0.000000000000000000, -1.000000000000000000 ) ) ;
#33 = CALENDAR_DATE ( 2021, 25, 2 ) ;
#34 = APPLICATION_PROTOCOL_DEFINITION ( 'international standard', 'config_control_design', 1994, #183 ) ;
#35 = ADVANCED_FACE ( 'NONE', ( #40 ), #130, .F. ) ;
#36 = DATE_AND_TIME ( #17, #48 ) ;
#37 = CC_DESIGN_APPROVAL ( #50, ( #23 ) ) ;
#38 = CARTESIAN_POINT ( 'NONE',  ( 3.209238430557093125E-14, 0.000000000000000000, 6.000000000000005329 ) ) ;
#39 = CARTESIAN_POINT ( 'NONE',  ( 6.350000000001289280, 7.776507174587272843E-16, 6.000000000000005329 ) ) ;
#40 = FACE_OUTER_BOUND ( 'NONE', #165, .T. ) ;
#41 = CC_DESIGN_DATE_AND_TIME_ASSIGNMENT ( #74, #116, ( #23 ) ) ;
#42 = LINE ( 'NONE', #173, #191 ) ;
#43 = CARTESIAN_POINT ( 'NONE',  ( 0.000000000000000000, 0.000000000000000000, 0.000000000000000000 ) ) ;
#44 = PERSON_AND_ORGANIZATION_ROLE ( 'creator' ) ;
#45 = DIRECTION ( 'NONE',  ( 1.000000000000000000, 0.000000000000000000, 0.000000000000000000 ) ) ;
#46 = DIRECTION ( 'NONE',  ( 0.000000000000000000, 0.000000000000000000, 1.000000000000000000 ) ) ;
#47 = COORDINATED_UNIVERSAL_TIME_OFFSET ( 2, 0, .AHEAD. ) ;
#48 = LOCAL_TIME ( 12, 36, 13.00000000000000000, #63 ) ;
#49 = AXIS2_PLACEMENT_3D ( 'NONE', #64, #126, #28 ) ;
#50 = APPROVAL ( #142, 'UNSPECIFIED' ) ;
#51 = CC_DESIGN_PERSON_AND_ORGANIZATION_ASSIGNMENT ( #178, #103, ( #23 ) ) ;
#52 = VERTEX_POINT ( 'NONE', #110 ) ;
#53 = LOCAL_TIME ( 12, 36, 13.00000000000000000, #137 ) ;
#54 = ORIENTED_EDGE ( 'NONE', *, *, #170, .F. ) ;
#55 = EDGE_CURVE ( 'NONE', #25, #52, #109, .T. ) ;
#56 = LINE ( 'NONE', #144, #167 ) ;
#57 = CARTESIAN_POINT ( 'NONE',  ( 0.000000000000000000, 0.000000000000000000, 6.000000000000000000 ) ) ;
#58 = CYLINDRICAL_SURFACE ( 'NONE', #24, 6.349999999999999645 ) ;
#59 = PERSON_AND_ORGANIZATION_ROLE ( 'creator' ) ;
#60 =( LENGTH_UNIT ( ) NAMED_UNIT ( * ) SI_UNIT ( .MILLI., .METRE. ) );
#61 = CALENDAR_DATE ( 2021, 25, 2 ) ;
#62 = ADVANCED_BREP_SHAPE_REPRESENTATION ( '010-1110T6_UVFS_PCV_window', ( #75, #106 ), #68 ) ;
#63 = COORDINATED_UNIVERSAL_TIME_OFFSET ( 2, 0, .AHEAD. ) ;
#64 = CARTESIAN_POINT ( 'NONE',  ( 3.209238430557093125E-14, 0.000000000000000000, 255.9193419885703520 ) ) ;
#65 = APPROVAL_DATE_TIME ( #7, #50 ) ;
#66 = ORIENTED_EDGE ( 'NONE', *, *, #189, .F. ) ;
#67 = APPROVAL_ROLE ( '' ) ;
#68 =( GEOMETRIC_REPRESENTATION_CONTEXT ( 3 ) GLOBAL_UNCERTAINTY_ASSIGNED_CONTEXT ( ( #190 ) ) GLOBAL_UNIT_ASSIGNED_CONTEXT ( ( #60, #158, #19 ) ) REPRESENTATION_CONTEXT ( 'NONE', 'WORKASPACE' ) );
#69 = DIRECTION ( 'NONE',  ( 1.000000000000000000, 1.224646799147353207E-16, 0.000000000000000000 ) ) ;
#70 = DIRECTION ( 'NONE',  ( 0.000000000000000000, 0.000000000000000000, 1.000000000000000000 ) ) ;
#71 = APPROVAL ( #15, 'UNSPECIFIED' ) ;
#72 = DIRECTION ( 'NONE',  ( -0.000000000000000000, -0.000000000000000000, -1.000000000000000000 ) ) ;
#73 = APPROVAL_DATE_TIME ( #90, #141 ) ;
#74 = DATE_AND_TIME ( #33, #131 ) ;
#75 = MANIFOLD_SOLID_BREP ( 'Cut-Revolve1', #160 ) ;
#76 = CALENDAR_DATE ( 2021, 25, 2 ) ;
#77 = PERSON_AND_ORGANIZATION_ROLE ( 'design_owner' ) ;
#78 = APPROVAL_PERSON_ORGANIZATION ( #107, #71, #1 ) ;
#79 = PRODUCT_DEFINITION ( 'UNKNOWN', '', #30, #5 ) ;
#80 = ORIENTED_EDGE ( 'NONE', *, *, #170, .T. ) ;
#81 = CC_DESIGN_PERSON_AND_ORGANIZATION_ASSIGNMENT ( #156, #44, ( #79 ) ) ;
#82 = CALENDAR_DATE ( 2021, 25, 2 ) ;
#83 = VERTEX_POINT ( 'NONE', #164 ) ;
#84 = EDGE_LOOP ( 'NONE', ( #54, #163, #143 ) ) ;
#85 = ORIENTED_EDGE ( 'NONE', *, *, #192, .T. ) ;
#86 = CARTESIAN_POINT ( 'NONE',  ( 4.740046929491285001E-14, 0.000000000000000000, 5.919341988570359092 ) ) ;
#87 = CARTESIAN_POINT ( 'NONE',  ( 3.209238430557093125E-14, 0.000000000000000000, 255.9193419885703520 ) ) ;
#88 = MECHANICAL_CONTEXT ( 'NONE', #159, 'mechanical' ) ;
#89 = DIRECTION ( 'NONE',  ( -1.000000000000000000, 0.000000000000000000, 0.000000000000000000 ) ) ;
#90 = DATE_AND_TIME ( #76, #53 ) ;
#91 = CARTESIAN_POINT ( 'NONE',  ( 0.000000000000000000, 0.000000000000000000, 0.000000000000000000 ) ) ;
#92 = EDGE_CURVE ( 'NONE', #25, #129, #56, .T. ) ;
#93 = PERSON ( 'UNSPECIFIED', 'UNSPECIFIED', 'UNSPECIFIED', ('UNSPECIFIED'), ('UNSPECIFIED'), ('UNSPECIFIED') ) ;
#94 = AXIS2_PLACEMENT_3D ( 'NONE', #155, #119, #169 ) ;
#95 = ORIENTED_EDGE ( 'NONE', *, *, #189, .T. ) ;
#96 = ORIENTED_EDGE ( 'NONE', *, *, #102, .T. ) ;
#97 = DIRECTION ( 'NONE',  ( -0.000000000000000000, -0.000000000000000000, -1.000000000000000000 ) ) ;
#98 = CYLINDRICAL_SURFACE ( 'NONE', #125, 6.349999999999999645 ) ;
#99 = DIRECTION ( 'NONE',  ( 0.000000000000000000, 0.000000000000000000, 1.000000000000000000 ) ) ;
#100 = CC_DESIGN_APPROVAL ( #141, ( #79 ) ) ;
#101 = DIRECTION ( 'NONE',  ( -0.000000000000000000, -0.000000000000000000, -1.000000000000000000 ) ) ;
#102 = EDGE_CURVE ( 'NONE', #52, #83, #42, .T. ) ;
#103 = PERSON_AND_ORGANIZATION_ROLE ( 'classification_officer' ) ;
#104 = DIRECTION ( 'NONE',  ( 1.000000000000000000, 0.000000000000000000, 0.000000000000000000 ) ) ;
#105 = PERSON_AND_ORGANIZATION ( #93, #123 ) ;
#106 = AXIS2_PLACEMENT_3D ( 'NONE', #200, #70, #104 ) ;
#107 = PERSON_AND_ORGANIZATION ( #93, #123 ) ;
#108 = CC_DESIGN_PERSON_AND_ORGANIZATION_ASSIGNMENT ( #105, #59, ( #30 ) ) ;
#109 = CIRCLE ( 'NONE', #139, 6.350000000001257305 ) ;
#110 = CARTESIAN_POINT ( 'NONE',  ( -6.350000000001225331, 0.000000000000000000, 6.000000000000005329 ) ) ;
#111 = AXIS2_PLACEMENT_3D ( 'NONE', #13, #46, #18 ) ;
#112 = DIRECTION ( 'NONE',  ( -0.000000000000000000, -0.000000000000000000, -1.000000000000000000 ) ) ;
#113 = ORIENTED_EDGE ( 'NONE', *, *, #92, .T. ) ;
#114 = DIRECTION ( 'NONE',  ( -0.000000000000000000, -0.000000000000000000, -1.000000000000000000 ) ) ;
#115 = ADVANCED_FACE ( 'NONE', ( #184 ), #199, .F. ) ;
#116 = DATE_TIME_ROLE ( 'classification_date' ) ;
#117 = DIRECTION ( 'NONE',  ( -1.000000000000000000, 0.000000000000000000, 0.000000000000000000 ) ) ;
#118 = ADVANCED_FACE ( 'NONE', ( #153 ), #98, .T. ) ;
#119 = DIRECTION ( 'NONE',  ( 0.000000000000000000, 1.000000000000000000, -0.000000000000000000 ) ) ;
#120 = PERSON_AND_ORGANIZATION_ROLE ( 'design_supplier' ) ;
#121 = APPROVAL_DATE_TIME ( #176, #71 ) ;
#122 = PERSON_AND_ORGANIZATION ( #93, #123 ) ;
#123 = ORGANIZATION ( 'UNSPECIFIED', 'UNSPECIFIED', '' ) ;
#124 = APPROVAL_PERSON_ORGANIZATION ( #138, #141, #157 ) ;
#125 = AXIS2_PLACEMENT_3D ( 'NONE', #11, #32, #89 ) ;
#126 = DIRECTION ( 'NONE',  ( 0.000000000000000000, -1.000000000000000000, -0.000000000000000000 ) ) ;
#127 = ORIENTED_EDGE ( 'NONE', *, *, #92, .F. ) ;
#128 = SHAPE_DEFINITION_REPRESENTATION ( #161, #62 ) ;
#129 = VERTEX_POINT ( 'NONE', #198 ) ;
#130 = SPHERICAL_SURFACE ( 'NONE', #49, 250.0000000000000000 ) ;
#131 = LOCAL_TIME ( 12, 36, 13.00000000000000000, #174 ) ;
#132 = AXIS2_PLACEMENT_3D ( 'NONE', #91, #99, #134 ) ;
#133 = FACE_OUTER_BOUND ( 'NONE', #6, .T. ) ;
#134 = DIRECTION ( 'NONE',  ( 1.000000000000000000, 0.000000000000000000, 0.000000000000000000 ) ) ;
#135 = ADVANCED_FACE ( 'NONE', ( #149 ), #58, .T. ) ;
#136 = DIRECTION ( 'NONE',  ( 0.000000000000000000, -1.000000000000000000, -0.000000000000000000 ) ) ;
#137 = COORDINATED_UNIVERSAL_TIME_OFFSET ( 2, 0, .AHEAD. ) ;
#138 = PERSON_AND_ORGANIZATION ( #93, #123 ) ;
#139 = AXIS2_PLACEMENT_3D ( 'NONE', #38, #112, #27 ) ;
#140 = APPROVAL_PERSON_ORGANIZATION ( #10, #50, #67 ) ;
#141 = APPROVAL ( #2, 'UNSPECIFIED' ) ;
#142 = APPROVAL_STATUS ( 'not_yet_approved' ) ;
#143 = ORIENTED_EDGE ( 'NONE', *, *, #162, .T. ) ;
#144 = CARTESIAN_POINT ( 'NONE',  ( 6.349999999999999645, 7.776507174585692163E-16, 6.000000000000000000 ) ) ;
#145 = EDGE_CURVE ( 'NONE', #52, #25, #171, .T. ) ;
#146 = ORIENTED_EDGE ( 'NONE', *, *, #145, .T. ) ;
#147 = VERTEX_POINT ( 'NONE', #86 ) ;
#148 = PRODUCT ( '010-1110T6_UVFS_PCV_window', '010-1110T6_UVFS_PCV_window', '', ( #88 ) ) ;
#149 = FACE_OUTER_BOUND ( 'NONE', #180, .T. ) ;
#150 = LOCAL_TIME ( 12, 36, 13.00000000000000000, #47 ) ;
#151 = DATE_TIME_ROLE ( 'creation_date' ) ;
#152 = CC_DESIGN_SECURITY_CLASSIFICATION ( #23, ( #30 ) ) ;
#153 = FACE_OUTER_BOUND ( 'NONE', #8, .T. ) ;
#154 = PERSON_AND_ORGANIZATION ( #93, #123 ) ;
#155 = CARTESIAN_POINT ( 'NONE',  ( 3.209238430557093125E-14, 0.000000000000000000, 255.9193419885703520 ) ) ;
#156 = PERSON_AND_ORGANIZATION ( #93, #123 ) ;
#157 = APPROVAL_ROLE ( '' ) ;
#158 =( NAMED_UNIT ( * ) PLANE_ANGLE_UNIT ( ) SI_UNIT ( $, .RADIAN. ) );
#159 = APPLICATION_CONTEXT ( 'configuration controlled 3d designs of mechanical parts and assemblies' ) ;
#160 = CLOSED_SHELL ( 'NONE', ( #35, #135, #118, #186, #115 ) ) ;
#161 = PRODUCT_DEFINITION_SHAPE ( 'NONE', 'NONE',  #79 ) ;
#162 = EDGE_CURVE ( 'NONE', #25, #147, #197, .T. ) ;
#163 = ORIENTED_EDGE ( 'NONE', *, *, #55, .F. ) ;
#164 = CARTESIAN_POINT ( 'NONE',  ( -6.349999999999999645, 0.000000000000000000, 0.000000000000000000 ) ) ;
#165 = EDGE_LOOP ( 'NONE', ( #182, #80, #195 ) ) ;
#166 = ORIENTED_EDGE ( 'NONE', *, *, #102, .F. ) ;
#167 = VECTOR ( 'NONE', #114, 1000.000000000000000 ) ;
#168 = CARTESIAN_POINT ( 'NONE',  ( 3.209238430557093125E-14, 0.000000000000000000, 255.9193419885703520 ) ) ;
#169 = DIRECTION ( 'NONE',  ( 0.000000000000000000, 0.000000000000000000, 1.000000000000000000 ) ) ;
#170 = EDGE_CURVE ( 'NONE', #52, #147, #177, .T. ) ;
#171 = CIRCLE ( 'NONE', #193, 6.350000000001257305 ) ;
#172 = AXIS2_PLACEMENT_3D ( 'NONE', #168, #29, #69 ) ;
#173 = CARTESIAN_POINT ( 'NONE',  ( -6.349999999999999645, 0.000000000000000000, 6.000000000000000000 ) ) ;
#174 = COORDINATED_UNIVERSAL_TIME_OFFSET ( 2, 0, .AHEAD. ) ;
#175 = APPLICATION_PROTOCOL_DEFINITION ( 'international standard', 'config_control_design', 1994, #159 ) ;
#176 = DATE_AND_TIME ( #61, #150 ) ;
#177 = CIRCLE ( 'NONE', #172, 250.0000000000000000 ) ;
#178 = PERSON_AND_ORGANIZATION ( #93, #123 ) ;
#179 = AXIS2_PLACEMENT_3D ( 'NONE', #43, #31, #201 ) ;
#180 = EDGE_LOOP ( 'NONE', ( #146, #113, #85, #166 ) ) ;
#181 = PRODUCT_RELATED_PRODUCT_CATEGORY ( 'detail', '', ( #148 ) ) ;
#182 = ORIENTED_EDGE ( 'NONE', *, *, #145, .F. ) ;
#183 = APPLICATION_CONTEXT ( 'configuration controlled 3d designs of mechanical parts and assemblies' ) ;
#184 = FACE_OUTER_BOUND ( 'NONE', #84, .T. ) ;
#185 = PLANE ( 'NONE',  #179 ) ;
#186 = ADVANCED_FACE ( 'NONE', ( #133 ), #185, .F. ) ;
#187 = SECURITY_CLASSIFICATION_LEVEL ( 'unclassified' ) ;
#188 = LOCAL_TIME ( 12, 36, 13.00000000000000000, #26 ) ;
#189 = EDGE_CURVE ( 'NONE', #83, #129, #12, .T. ) ;
#190 = UNCERTAINTY_MEASURE_WITH_UNIT (LENGTH_MEASURE( 1.000000000000000082E-05 ), #60, 'distance_accuracy_value', 'NONE');
#191 = VECTOR ( 'NONE', #97, 1000.000000000000000 ) ;
#192 = EDGE_CURVE ( 'NONE', #129, #83, #4, .T. ) ;
#193 = AXIS2_PLACEMENT_3D ( 'NONE', #14, #101, #16 ) ;
#194 = ORIENTED_EDGE ( 'NONE', *, *, #192, .F. ) ;
#195 = ORIENTED_EDGE ( 'NONE', *, *, #162, .F. ) ;
#196 = ORIENTED_EDGE ( 'NONE', *, *, #55, .T. ) ;
#197 = CIRCLE ( 'NONE', #94, 250.0000000000000000 ) ;
#198 = CARTESIAN_POINT ( 'NONE',  ( 6.349999999999999645, 7.776507174585692163E-16, 0.000000000000000000 ) ) ;
#199 = SPHERICAL_SURFACE ( 'NONE', #20, 250.0000000000000000 ) ;
#200 = CARTESIAN_POINT ( 'NONE',  ( 0.000000000000000000, 0.000000000000000000, 0.000000000000000000 ) ) ;
#201 = DIRECTION ( 'NONE',  ( 1.000000000000000000, 0.000000000000000000, -0.000000000000000000 ) ) ;
ENDSEC;
END-ISO-10303-21;
