ISO-10303-21;
HEADER;
FILE_DESCRIPTION (( 'STEP AP203' ),
    '1' );
FILE_NAME ('010-1110E_UVFS_PCV_window.STEP',
    '2021-02-25T08:34:19',
    ( '' ),
    ( '' ),
    'SwSTEP 2.0',
    'SolidWorks 2019',
    '' );
FILE_SCHEMA (( 'CONFIG_CONTROL_DESIGN' ));
ENDSEC;

DATA;
#1 = DATE_AND_TIME ( #38, #25 ) ;
#2 = APPLICATION_PROTOCOL_DEFINITION ( 'international standard', 'config_control_design', 1994, #77 ) ;
#3 = DIRECTION ( 'NONE',  ( 0.000000000000000000, 1.000000000000000000, -0.000000000000000000 ) ) ;
#4 = CIRCLE ( 'NONE', #112, 250.0000000000000000 ) ;
#5 = EDGE_CURVE ( 'NONE', #7, #89, #170, .T. ) ;
#6 = CARTESIAN_POINT ( 'NONE',  ( 6.349999999999999645, 7.776507174585692163E-16, 3.000000000000000000 ) ) ;
#7 = VERTEX_POINT ( 'NONE', #194 ) ;
#8 = EDGE_LOOP ( 'NONE', ( #121, #29, #146 ) ) ;
#9 = CARTESIAN_POINT ( 'NONE',  ( 0.000000000000000000, 0.000000000000000000, 0.000000000000000000 ) ) ;
#10 = CC_DESIGN_PERSON_AND_ORGANIZATION_ASSIGNMENT ( #50, #190, ( #74 ) ) ;
#11 = AXIS2_PLACEMENT_3D ( 'NONE', #119, #179, #90 ) ;
#12 = FACE_OUTER_BOUND ( 'NONE', #181, .T. ) ;
#13 = DIRECTION ( 'NONE',  ( 1.000000000000000000, 0.000000000000000000, 0.000000000000000000 ) ) ;
#14 = PRODUCT_RELATED_PRODUCT_CATEGORY ( 'detail', '', ( #106 ) ) ;
#15 = CIRCLE ( 'NONE', #166, 6.349999999999999645 ) ;
#16 = CC_DESIGN_APPROVAL ( #82, ( #74 ) ) ;
#17 = PERSON_AND_ORGANIZATION_ROLE ( 'design_owner' ) ;
#18 = PERSON_AND_ORGANIZATION_ROLE ( 'classification_officer' ) ;
#19 = AXIS2_PLACEMENT_3D ( 'NONE', #22, #107, #70 ) ;
#20 = APPROVAL_ROLE ( '' ) ;
#21 = APPROVAL_ROLE ( '' ) ;
#22 = CARTESIAN_POINT ( 'NONE',  ( 0.000000000000000000, 0.000000000000000000, 0.000000000000000000 ) ) ;
#23 = APPROVAL_STATUS ( 'not_yet_approved' ) ;
#24 = CARTESIAN_POINT ( 'NONE',  ( 3.209238430557093125E-14, 0.000000000000000000, 252.9193419885703520 ) ) ;
#25 = LOCAL_TIME ( 10, 34, 19.00000000000000000, #142 ) ;
#26 = ORIENTED_EDGE ( 'NONE', *, *, #66, .T. ) ;
#27 = EDGE_CURVE ( 'NONE', #130, #7, #185, .T. ) ;
#28 = EDGE_LOOP ( 'NONE', ( #193, #88 ) ) ;
#29 = ORIENTED_EDGE ( 'NONE', *, *, #180, .T. ) ;
#30 = AXIS2_PLACEMENT_3D ( 'NONE', #176, #3, #59 ) ;
#31 = PRODUCT_DEFINITION ( 'UNKNOWN', '', #74, #98 ) ;
#32 = AXIS2_PLACEMENT_3D ( 'NONE', #167, #111, #13 ) ;
#33 = CARTESIAN_POINT ( 'NONE',  ( -6.349999999999999645, 0.000000000000000000, 0.000000000000000000 ) ) ;
#34 = DIRECTION ( 'NONE',  ( 1.000000000000000000, 1.224646799147353207E-16, 0.000000000000000000 ) ) ;
#35 = LOCAL_TIME ( 10, 34, 19.00000000000000000, #143 ) ;
#36 = EDGE_CURVE ( 'NONE', #178, #161, #162, .T. ) ;
#37 =( NAMED_UNIT ( * ) SI_UNIT ( $, .STERADIAN. ) SOLID_ANGLE_UNIT ( ) );
#38 = CALENDAR_DATE ( 2021, 25, 2 ) ;
#39 = APPROVAL_ROLE ( '' ) ;
#40 = ORIENTED_EDGE ( 'NONE', *, *, #43, .F. ) ;
#41 = CYLINDRICAL_SURFACE ( 'NONE', #76, 6.349999999999999645 ) ;
#42 = CC_DESIGN_APPROVAL ( #172, ( #31 ) ) ;
#43 = EDGE_CURVE ( 'NONE', #130, #178, #147, .T. ) ;
#44 = ORIENTED_EDGE ( 'NONE', *, *, #198, .T. ) ;
#45 = LOCAL_TIME ( 10, 34, 19.00000000000000000, #129 ) ;
#46 = FACE_OUTER_BOUND ( 'NONE', #8, .T. ) ;
#47 = ORGANIZATION ( 'UNSPECIFIED', 'UNSPECIFIED', '' ) ;
#48 = DIRECTION ( 'NONE',  ( -0.000000000000000000, -0.000000000000000000, -1.000000000000000000 ) ) ;
#49 = DIRECTION ( 'NONE',  ( 1.000000000000000000, 0.000000000000000000, 0.000000000000000000 ) ) ;
#50 = PERSON_AND_ORGANIZATION ( #155, #47 ) ;
#51 = CC_DESIGN_PERSON_AND_ORGANIZATION_ASSIGNMENT ( #67, #189, ( #31 ) ) ;
#52 = APPROVAL_PERSON_ORGANIZATION ( #101, #149, #21 ) ;
#53 = PRODUCT_DEFINITION_SHAPE ( 'NONE', 'NONE',  #31 ) ;
#54 = CALENDAR_DATE ( 2021, 25, 2 ) ;
#55 = FACE_OUTER_BOUND ( 'NONE', #58, .T. ) ;
#56 = CC_DESIGN_PERSON_AND_ORGANIZATION_ASSIGNMENT ( #153, #18, ( #151 ) ) ;
#57 = ORIENTED_EDGE ( 'NONE', *, *, #36, .T. ) ;
#58 = EDGE_LOOP ( 'NONE', ( #73, #44, #72, #57 ) ) ;
#59 = DIRECTION ( 'NONE',  ( 0.000000000000000000, 0.000000000000000000, 1.000000000000000000 ) ) ;
#60 = ADVANCED_BREP_SHAPE_REPRESENTATION ( '010-1110E_UVFS_PCV_window', ( #141, #132 ), #80 ) ;
#61 = ADVANCED_FACE ( 'NONE', ( #174 ), #158, .F. ) ;
#62 = APPROVAL_PERSON_ORGANIZATION ( #188, #82, #39 ) ;
#63 = DIRECTION ( 'NONE',  ( 1.000000000000000000, 0.000000000000000000, 0.000000000000000000 ) ) ;
#64 = CC_DESIGN_SECURITY_CLASSIFICATION ( #151, ( #74 ) ) ;
#65 = DATE_AND_TIME ( #128, #118 ) ;
#66 = EDGE_CURVE ( 'NONE', #7, #161, #102, .T. ) ;
#67 = PERSON_AND_ORGANIZATION ( #155, #47 ) ;
#68 = LOCAL_TIME ( 10, 34, 19.00000000000000000, #116 ) ;
#69 = DATE_AND_TIME ( #54, #35 ) ;
#70 = DIRECTION ( 'NONE',  ( 1.000000000000000000, 0.000000000000000000, 0.000000000000000000 ) ) ;
#71 = ORIENTED_EDGE ( 'NONE', *, *, #5, .T. ) ;
#72 = ORIENTED_EDGE ( 'NONE', *, *, #43, .T. ) ;
#73 = ORIENTED_EDGE ( 'NONE', *, *, #66, .F. ) ;
#74 = PRODUCT_DEFINITION_FORMATION_WITH_SPECIFIED_SOURCE ( 'ANY', '', #106, .NOT_KNOWN. ) ;
#75 = CARTESIAN_POINT ( 'NONE',  ( 3.209238430557093125E-14, 0.000000000000000000, 252.9193419885703520 ) ) ;
#76 = AXIS2_PLACEMENT_3D ( 'NONE', #104, #196, #94 ) ;
#77 = APPLICATION_CONTEXT ( 'configuration controlled 3d designs of mechanical parts and assemblies' ) ;
#78 = ADVANCED_FACE ( 'NONE', ( #55 ), #41, .T. ) ;
#79 = DIRECTION ( 'NONE',  ( -0.000000000000000000, -0.000000000000000000, -1.000000000000000000 ) ) ;
#80 =( GEOMETRIC_REPRESENTATION_CONTEXT ( 3 ) GLOBAL_UNCERTAINTY_ASSIGNED_CONTEXT ( ( #187 ) ) GLOBAL_UNIT_ASSIGNED_CONTEXT ( ( #164, #100, #37 ) ) REPRESENTATION_CONTEXT ( 'NONE', 'WORKASPACE' ) );
#81 = DIRECTION ( 'NONE',  ( 0.000000000000000000, 0.000000000000000000, 1.000000000000000000 ) ) ;
#82 = APPROVAL ( #201, 'UNSPECIFIED' ) ;
#83 = APPROVAL_STATUS ( 'not_yet_approved' ) ;
#84 = MECHANICAL_CONTEXT ( 'NONE', #110, 'mechanical' ) ;
#85 = EDGE_LOOP ( 'NONE', ( #105, #108, #71 ) ) ;
#86 = DIRECTION ( 'NONE',  ( 0.000000000000000000, -1.000000000000000000, -0.000000000000000000 ) ) ;
#87 = CALENDAR_DATE ( 2021, 25, 2 ) ;
#88 = ORIENTED_EDGE ( 'NONE', *, *, #159, .F. ) ;
#89 = VERTEX_POINT ( 'NONE', #152 ) ;
#90 = DIRECTION ( 'NONE',  ( 1.000000000000000000, 0.000000000000000000, 0.000000000000000000 ) ) ;
#91 = AXIS2_PLACEMENT_3D ( 'NONE', #9, #113, #136 ) ;
#92 = CARTESIAN_POINT ( 'NONE',  ( 3.209238430557093125E-14, 0.000000000000000000, 3.000000000000002665 ) ) ;
#93 = CC_DESIGN_PERSON_AND_ORGANIZATION_ASSIGNMENT ( #114, #168, ( #74 ) ) ;
#94 = DIRECTION ( 'NONE',  ( -1.000000000000000000, 0.000000000000000000, 0.000000000000000000 ) ) ;
#95 = DIRECTION ( 'NONE',  ( 1.000000000000000000, 0.000000000000000000, 0.000000000000000000 ) ) ;
#96 = CALENDAR_DATE ( 2021, 25, 2 ) ;
#97 = PERSON_AND_ORGANIZATION ( #155, #47 ) ;
#98 = DESIGN_CONTEXT ( 'detailed design', #77, 'design' ) ;
#99 = AXIS2_PLACEMENT_3D ( 'NONE', #138, #79, #124 ) ;
#100 =( NAMED_UNIT ( * ) PLANE_ANGLE_UNIT ( ) SI_UNIT ( $, .RADIAN. ) );
#101 = PERSON_AND_ORGANIZATION ( #155, #47 ) ;
#102 = LINE ( 'NONE', #6, #177 ) ;
#103 = CIRCLE ( 'NONE', #122, 6.350000000001257305 ) ;
#104 = CARTESIAN_POINT ( 'NONE',  ( 0.000000000000000000, 0.000000000000000000, 3.000000000000000000 ) ) ;
#105 = ORIENTED_EDGE ( 'NONE', *, *, #180, .F. ) ;
#106 = PRODUCT ( '010-1110E_UVFS_PCV_window', '010-1110E_UVFS_PCV_window', '', ( #84 ) ) ;
#107 = DIRECTION ( 'NONE',  ( 0.000000000000000000, 0.000000000000000000, 1.000000000000000000 ) ) ;
#108 = ORIENTED_EDGE ( 'NONE', *, *, #198, .F. ) ;
#109 = ADVANCED_FACE ( 'NONE', ( #12 ), #150, .T. ) ;
#110 = APPLICATION_CONTEXT ( 'configuration controlled 3d designs of mechanical parts and assemblies' ) ;
#111 = DIRECTION ( 'NONE',  ( 0.000000000000000000, -1.000000000000000000, -0.000000000000000000 ) ) ;
#112 = AXIS2_PLACEMENT_3D ( 'NONE', #75, #135, #34 ) ;
#113 = DIRECTION ( 'NONE',  ( 0.000000000000000000, 0.000000000000000000, 1.000000000000000000 ) ) ;
#114 = PERSON_AND_ORGANIZATION ( #155, #47 ) ;
#115 = APPLICATION_PROTOCOL_DEFINITION ( 'international standard', 'config_control_design', 1994, #110 ) ;
#116 = COORDINATED_UNIVERSAL_TIME_OFFSET ( 2, 0, .AHEAD. ) ;
#117 = SHAPE_DEFINITION_REPRESENTATION ( #53, #60 ) ;
#118 = LOCAL_TIME ( 10, 34, 19.00000000000000000, #140 ) ;
#119 = CARTESIAN_POINT ( 'NONE',  ( 3.209238430557093125E-14, 0.000000000000000000, 3.000000000000002665 ) ) ;
#120 = ADVANCED_FACE ( 'NONE', ( #184 ), #148, .F. ) ;
#121 = ORIENTED_EDGE ( 'NONE', *, *, #27, .F. ) ;
#122 = AXIS2_PLACEMENT_3D ( 'NONE', #92, #48, #95 ) ;
#123 = CARTESIAN_POINT ( 'NONE',  ( 0.000000000000000000, 0.000000000000000000, 0.000000000000000000 ) ) ;
#124 = DIRECTION ( 'NONE',  ( -1.000000000000000000, 0.000000000000000000, 0.000000000000000000 ) ) ;
#125 = CC_DESIGN_APPROVAL ( #149, ( #151 ) ) ;
#126 = DATE_TIME_ROLE ( 'creation_date' ) ;
#127 = CC_DESIGN_DATE_AND_TIME_ASSIGNMENT ( #171, #126, ( #31 ) ) ;
#128 = CALENDAR_DATE ( 2021, 25, 2 ) ;
#129 = COORDINATED_UNIVERSAL_TIME_OFFSET ( 2, 0, .AHEAD. ) ;
#130 = VERTEX_POINT ( 'NONE', #200 ) ;
#131 = CC_DESIGN_DATE_AND_TIME_ASSIGNMENT ( #191, #175, ( #151 ) ) ;
#132 = AXIS2_PLACEMENT_3D ( 'NONE', #186, #81, #49 ) ;
#133 = ORIENTED_EDGE ( 'NONE', *, *, #27, .T. ) ;
#134 = CARTESIAN_POINT ( 'NONE',  ( -6.349999999999999645, 0.000000000000000000, 3.000000000000000000 ) ) ;
#135 = DIRECTION ( 'NONE',  ( 1.224646799147353207E-16, -1.000000000000000000, 0.000000000000000000 ) ) ;
#136 = DIRECTION ( 'NONE',  ( 1.000000000000000000, 0.000000000000000000, -0.000000000000000000 ) ) ;
#137 = SPHERICAL_SURFACE ( 'NONE', #32, 250.0000000000000000 ) ;
#138 = CARTESIAN_POINT ( 'NONE',  ( 0.000000000000000000, 0.000000000000000000, 3.000000000000000000 ) ) ;
#139 = ADVANCED_FACE ( 'NONE', ( #46 ), #137, .F. ) ;
#140 = COORDINATED_UNIVERSAL_TIME_OFFSET ( 2, 0, .AHEAD. ) ;
#141 = MANIFOLD_SOLID_BREP ( 'Cut-Revolve1', #182 ) ;
#142 = COORDINATED_UNIVERSAL_TIME_OFFSET ( 2, 0, .AHEAD. ) ;
#143 = COORDINATED_UNIVERSAL_TIME_OFFSET ( 2, 0, .AHEAD. ) ;
#144 = APPROVAL_DATE_TIME ( #69, #149 ) ;
#145 = DIRECTION ( 'NONE',  ( 1.000000000000000000, 0.000000000000000000, 0.000000000000000000 ) ) ;
#146 = ORIENTED_EDGE ( 'NONE', *, *, #5, .F. ) ;
#147 = LINE ( 'NONE', #134, #197 ) ;
#148 = PLANE ( 'NONE',  #91 ) ;
#149 = APPROVAL ( #23, 'UNSPECIFIED' ) ;
#150 = CYLINDRICAL_SURFACE ( 'NONE', #99, 6.349999999999999645 ) ;
#151 = SECURITY_CLASSIFICATION ( '', '', #156 ) ;
#152 = CARTESIAN_POINT ( 'NONE',  ( 4.740046929491285001E-14, 0.000000000000000000, 2.919341988570356428 ) ) ;
#153 = PERSON_AND_ORGANIZATION ( #155, #47 ) ;
#154 = AXIS2_PLACEMENT_3D ( 'NONE', #24, #86, #145 ) ;
#155 = PERSON ( 'UNSPECIFIED', 'UNSPECIFIED', 'UNSPECIFIED', ('UNSPECIFIED'), ('UNSPECIFIED'), ('UNSPECIFIED') ) ;
#156 = SECURITY_CLASSIFICATION_LEVEL ( 'unclassified' ) ;
#157 = APPROVAL_DATE_TIME ( #1, #82 ) ;
#158 = SPHERICAL_SURFACE ( 'NONE', #154, 250.0000000000000000 ) ;
#159 = EDGE_CURVE ( 'NONE', #161, #178, #15, .T. ) ;
#160 = ORIENTED_EDGE ( 'NONE', *, *, #159, .T. ) ;
#161 = VERTEX_POINT ( 'NONE', #183 ) ;
#162 = CIRCLE ( 'NONE', #19, 6.349999999999999645 ) ;
#163 = DIRECTION ( 'NONE',  ( 0.000000000000000000, 0.000000000000000000, 1.000000000000000000 ) ) ;
#164 =( LENGTH_UNIT ( ) NAMED_UNIT ( * ) SI_UNIT ( .MILLI., .METRE. ) );
#165 = CC_DESIGN_PERSON_AND_ORGANIZATION_ASSIGNMENT ( #97, #17, ( #106 ) ) ;
#166 = AXIS2_PLACEMENT_3D ( 'NONE', #123, #163, #63 ) ;
#167 = CARTESIAN_POINT ( 'NONE',  ( 3.209238430557093125E-14, 0.000000000000000000, 252.9193419885703520 ) ) ;
#168 = PERSON_AND_ORGANIZATION_ROLE ( 'design_supplier' ) ;
#169 = PERSON_AND_ORGANIZATION ( #155, #47 ) ;
#170 = CIRCLE ( 'NONE', #30, 250.0000000000000000 ) ;
#171 = DATE_AND_TIME ( #96, #45 ) ;
#172 = APPROVAL ( #83, 'UNSPECIFIED' ) ;
#173 = APPROVAL_DATE_TIME ( #65, #172 ) ;
#174 = FACE_OUTER_BOUND ( 'NONE', #85, .T. ) ;
#175 = DATE_TIME_ROLE ( 'classification_date' ) ;
#176 = CARTESIAN_POINT ( 'NONE',  ( 3.209238430557093125E-14, 0.000000000000000000, 252.9193419885703520 ) ) ;
#177 = VECTOR ( 'NONE', #192, 1000.000000000000000 ) ;
#178 = VERTEX_POINT ( 'NONE', #33 ) ;
#179 = DIRECTION ( 'NONE',  ( -0.000000000000000000, -0.000000000000000000, -1.000000000000000000 ) ) ;
#180 = EDGE_CURVE ( 'NONE', #130, #89, #4, .T. ) ;
#181 = EDGE_LOOP ( 'NONE', ( #133, #26, #160, #40 ) ) ;
#182 = CLOSED_SHELL ( 'NONE', ( #139, #109, #78, #120, #61 ) ) ;
#183 = CARTESIAN_POINT ( 'NONE',  ( 6.349999999999999645, 7.776507174585692163E-16, 0.000000000000000000 ) ) ;
#184 = FACE_OUTER_BOUND ( 'NONE', #28, .T. ) ;
#185 = CIRCLE ( 'NONE', #11, 6.350000000001257305 ) ;
#186 = CARTESIAN_POINT ( 'NONE',  ( 0.000000000000000000, 0.000000000000000000, 0.000000000000000000 ) ) ;
#187 = UNCERTAINTY_MEASURE_WITH_UNIT (LENGTH_MEASURE( 1.000000000000000082E-05 ), #164, 'distance_accuracy_value', 'NONE');
#188 = PERSON_AND_ORGANIZATION ( #155, #47 ) ;
#189 = PERSON_AND_ORGANIZATION_ROLE ( 'creator' ) ;
#190 = PERSON_AND_ORGANIZATION_ROLE ( 'creator' ) ;
#191 = DATE_AND_TIME ( #87, #68 ) ;
#192 = DIRECTION ( 'NONE',  ( -0.000000000000000000, -0.000000000000000000, -1.000000000000000000 ) ) ;
#193 = ORIENTED_EDGE ( 'NONE', *, *, #36, .F. ) ;
#194 = CARTESIAN_POINT ( 'NONE',  ( 6.350000000001289280, 7.776507174587272843E-16, 3.000000000000002665 ) ) ;
#195 = DIRECTION ( 'NONE',  ( -0.000000000000000000, -0.000000000000000000, -1.000000000000000000 ) ) ;
#196 = DIRECTION ( 'NONE',  ( -0.000000000000000000, -0.000000000000000000, -1.000000000000000000 ) ) ;
#197 = VECTOR ( 'NONE', #195, 1000.000000000000000 ) ;
#198 = EDGE_CURVE ( 'NONE', #7, #130, #103, .T. ) ;
#199 = APPROVAL_PERSON_ORGANIZATION ( #169, #172, #20 ) ;
#200 = CARTESIAN_POINT ( 'NONE',  ( -6.350000000001225331, 0.000000000000000000, 3.000000000000002665 ) ) ;
#201 = APPROVAL_STATUS ( 'not_yet_approved' ) ;
ENDSEC;
END-ISO-10303-21;
