ISO-10303-21;
HEADER;
FILE_DESCRIPTION (( 'STEP AP203' ),
    '1' );
FILE_NAME ('010-1109T6_UVFS_PCV_window.STEP',
    '2021-02-25T10:34:15',
    ( '' ),
    ( '' ),
    'SwSTEP 2.0',
    'SolidWorks 2019',
    '' );
FILE_SCHEMA (( 'CONFIG_CONTROL_DESIGN' ));
ENDSEC;

DATA;
#1 = AXIS2_PLACEMENT_3D ( 'NONE', #38, #101, #193 ) ;
#2 = DATE_AND_TIME ( #111, #86 ) ;
#3 = CALENDAR_DATE ( 2021, 25, 2 ) ;
#4 = PERSON_AND_ORGANIZATION_ROLE ( 'creator' ) ;
#5 = DIRECTION ( 'NONE',  ( 1.000000000000000000, 0.000000000000000000, 0.000000000000000000 ) ) ;
#6 = AXIS2_PLACEMENT_3D ( 'NONE', #194, #40, #58 ) ;
#7 = DIRECTION ( 'NONE',  ( 0.000000000000000000, -1.000000000000000000, -0.000000000000000000 ) ) ;
#8 = FACE_OUTER_BOUND ( 'NONE', #33, .T. ) ;
#9 = DIRECTION ( 'NONE',  ( 0.000000000000000000, -1.000000000000000000, -0.000000000000000000 ) ) ;
#10 = EDGE_CURVE ( 'NONE', #84, #50, #106, .T. ) ;
#11 = DIRECTION ( 'NONE',  ( -0.000000000000000000, -0.000000000000000000, -1.000000000000000000 ) ) ;
#12 = AXIS2_PLACEMENT_3D ( 'NONE', #195, #89, #164 ) ;
#13 =( NAMED_UNIT ( * ) SI_UNIT ( $, .STERADIAN. ) SOLID_ANGLE_UNIT ( ) );
#14 = PERSON_AND_ORGANIZATION ( #114, #119 ) ;
#15 = AXIS2_PLACEMENT_3D ( 'NONE', #95, #99, #157 ) ;
#16 = EDGE_CURVE ( 'NONE', #50, #84, #165, .T. ) ;
#17 = CALENDAR_DATE ( 2021, 25, 2 ) ;
#18 = VERTEX_POINT ( 'NONE', #54 ) ;
#19 = CARTESIAN_POINT ( 'NONE',  ( 7.479991678627446061E-14, 0.000000000000000000, 5.949593699005994551 ) ) ;
#20 = CC_DESIGN_APPROVAL ( #46, ( #159 ) ) ;
#21 = ORIENTED_EDGE ( 'NONE', *, *, #10, .F. ) ;
#22 = ORIENTED_EDGE ( 'NONE', *, *, #105, .F. ) ;
#23 = DIRECTION ( 'NONE',  ( 0.000000000000000000, 0.000000000000000000, 1.000000000000000000 ) ) ;
#24 = ADVANCED_FACE ( 'NONE', ( #113 ), #100, .T. ) ;
#25 = CARTESIAN_POINT ( 'NONE',  ( -6.350000000003939604, 0.000000000000000000, 6.000000000000005329 ) ) ;
#26 = CC_DESIGN_PERSON_AND_ORGANIZATION_ASSIGNMENT ( #122, #183, ( #160 ) ) ;
#27 = AXIS2_PLACEMENT_3D ( 'NONE', #147, #23, #5 ) ;
#28 = CIRCLE ( 'NONE', #61, 399.9999999999999432 ) ;
#29 = EDGE_CURVE ( 'NONE', #112, #37, #124, .T. ) ;
#30 = DATE_TIME_ROLE ( 'classification_date' ) ;
#31 = APPLICATION_PROTOCOL_DEFINITION ( 'international standard', 'config_control_design', 1994, #181 ) ;
#32 = PERSON_AND_ORGANIZATION ( #114, #119 ) ;
#33 = EDGE_LOOP ( 'NONE', ( #161, #21 ) ) ;
#34 = APPROVAL_ROLE ( '' ) ;
#35 = FACE_OUTER_BOUND ( 'NONE', #70, .T. ) ;
#36 = PRODUCT ( '010-1109T6_UVFS_PCV_window', '010-1109T6_UVFS_PCV_window', '', ( #94 ) ) ;
#37 = VERTEX_POINT ( 'NONE', #19 ) ;
#38 = CARTESIAN_POINT ( 'NONE',  ( 0.000000000000000000, 0.000000000000000000, 0.000000000000000000 ) ) ;
#39 = PRODUCT_RELATED_PRODUCT_CATEGORY ( 'detail', '', ( #36 ) ) ;
#40 = DIRECTION ( 'NONE',  ( -0.000000000000000000, -0.000000000000000000, -1.000000000000000000 ) ) ;
#41 = CARTESIAN_POINT ( 'NONE',  ( 5.030698080332740574E-14, 0.000000000000000000, 6.000000000000005329 ) ) ;
#42 = AXIS2_PLACEMENT_3D ( 'NONE', #41, #72, #120 ) ;
#43 = EDGE_CURVE ( 'NONE', #18, #84, #145, .T. ) ;
#44 = CALENDAR_DATE ( 2021, 25, 2 ) ;
#45 = SHAPE_DEFINITION_REPRESENTATION ( #156, #118 ) ;
#46 = APPROVAL ( #108, 'UNSPECIFIED' ) ;
#47 = DIRECTION ( 'NONE',  ( 1.000000000000000000, 0.000000000000000000, 0.000000000000000000 ) ) ;
#48 = COORDINATED_UNIVERSAL_TIME_OFFSET ( 2, 0, .AHEAD. ) ;
#49 = ORIENTED_EDGE ( 'NONE', *, *, #43, .T. ) ;
#50 = VERTEX_POINT ( 'NONE', #190 ) ;
#51 = APPROVAL ( #186, 'UNSPECIFIED' ) ;
#52 = ORIENTED_EDGE ( 'NONE', *, *, #189, .T. ) ;
#53 = CIRCLE ( 'NONE', #6, 6.350000000003989342 ) ;
#54 = CARTESIAN_POINT ( 'NONE',  ( 6.350000000004039080, 7.776507174590639307E-16, 6.000000000000005329 ) ) ;
#55 = LINE ( 'NONE', #150, #81 ) ;
#56 = FACE_OUTER_BOUND ( 'NONE', #115, .T. ) ;
#57 = LOCAL_TIME ( 12, 34, 15.00000000000000000, #188 ) ;
#58 = DIRECTION ( 'NONE',  ( 1.000000000000000000, 0.000000000000000000, 0.000000000000000000 ) ) ;
#59 = ADVANCED_FACE ( 'NONE', ( #35 ), #158, .F. ) ;
#60 = APPROVAL_ROLE ( '' ) ;
#61 = AXIS2_PLACEMENT_3D ( 'NONE', #179, #74, #102 ) ;
#62 = CC_DESIGN_PERSON_AND_ORGANIZATION_ASSIGNMENT ( #154, #4, ( #160 ) ) ;
#63 = PERSON_AND_ORGANIZATION ( #114, #119 ) ;
#64 = ORIENTED_EDGE ( 'NONE', *, *, #167, .T. ) ;
#65 = PERSON_AND_ORGANIZATION_ROLE ( 'classification_officer' ) ;
#66 = CARTESIAN_POINT ( 'NONE',  ( 6.349999999999999645, 7.776507174585692163E-16, 6.000000000000000000 ) ) ;
#67 =( GEOMETRIC_REPRESENTATION_CONTEXT ( 3 ) GLOBAL_UNCERTAINTY_ASSIGNED_CONTEXT ( ( #121 ) ) GLOBAL_UNIT_ASSIGNED_CONTEXT ( ( #73, #151, #13 ) ) REPRESENTATION_CONTEXT ( 'NONE', 'WORKASPACE' ) );
#68 = CC_DESIGN_PERSON_AND_ORGANIZATION_ASSIGNMENT ( #32, #153, ( #36 ) ) ;
#69 = ORIENTED_EDGE ( 'NONE', *, *, #10, .T. ) ;
#70 = EDGE_LOOP ( 'NONE', ( #191, #174, #64 ) ) ;
#71 = APPROVAL ( #173, 'UNSPECIFIED' ) ;
#72 = DIRECTION ( 'NONE',  ( -0.000000000000000000, -0.000000000000000000, -1.000000000000000000 ) ) ;
#73 =( LENGTH_UNIT ( ) NAMED_UNIT ( * ) SI_UNIT ( .MILLI., .METRE. ) );
#74 = DIRECTION ( 'NONE',  ( 0.000000000000000000, 1.000000000000000000, -0.000000000000000000 ) ) ;
#75 = LOCAL_TIME ( 12, 34, 15.00000000000000000, #83 ) ;
#76 = ADVANCED_FACE ( 'NONE', ( #98 ), #88, .F. ) ;
#77 = CLOSED_SHELL ( 'NONE', ( #76, #162, #24, #141, #59 ) ) ;
#78 = CC_DESIGN_APPROVAL ( #71, ( #137 ) ) ;
#79 = PERSON_AND_ORGANIZATION ( #114, #119 ) ;
#80 = APPLICATION_PROTOCOL_DEFINITION ( 'international standard', 'config_control_design', 1994, #96 ) ;
#81 = VECTOR ( 'NONE', #197, 1000.000000000000000 ) ;
#82 = DATE_TIME_ROLE ( 'creation_date' ) ;
#83 = COORDINATED_UNIVERSAL_TIME_OFFSET ( 2, 0, .AHEAD. ) ;
#84 = VERTEX_POINT ( 'NONE', #135 ) ;
#85 = APPROVAL_PERSON_ORGANIZATION ( #14, #51, #60 ) ;
#86 = LOCAL_TIME ( 12, 34, 15.00000000000000000, #48 ) ;
#87 = ORIENTED_EDGE ( 'NONE', *, *, #16, .T. ) ;
#88 = SPHERICAL_SURFACE ( 'NONE', #152, 400.0000000000000000 ) ;
#89 = DIRECTION ( 'NONE',  ( 0.000000000000000000, 0.000000000000000000, 1.000000000000000000 ) ) ;
#90 = VECTOR ( 'NONE', #130, 1000.000000000000000 ) ;
#91 = AXIS2_PLACEMENT_3D ( 'NONE', #187, #175, #109 ) ;
#92 = CC_DESIGN_SECURITY_CLASSIFICATION ( #137, ( #160 ) ) ;
#93 = DATE_AND_TIME ( #3, #57 ) ;
#94 = MECHANICAL_CONTEXT ( 'NONE', #181, 'mechanical' ) ;
#95 = CARTESIAN_POINT ( 'NONE',  ( 5.030698080332740574E-14, 0.000000000000000000, 405.9495936990060159 ) ) ;
#96 = APPLICATION_CONTEXT ( 'configuration controlled 3d designs of mechanical parts and assemblies' ) ;
#97 = COORDINATED_UNIVERSAL_TIME_OFFSET ( 2, 0, .AHEAD. ) ;
#98 = FACE_OUTER_BOUND ( 'NONE', #178, .T. ) ;
#99 = DIRECTION ( 'NONE',  ( 1.224646799147353207E-16, -1.000000000000000000, 0.000000000000000000 ) ) ;
#100 = CYLINDRICAL_SURFACE ( 'NONE', #91, 6.349999999999999645 ) ;
#101 = DIRECTION ( 'NONE',  ( 0.000000000000000000, 0.000000000000000000, 1.000000000000000000 ) ) ;
#102 = DIRECTION ( 'NONE',  ( 0.000000000000000000, 0.000000000000000000, 1.000000000000000000 ) ) ;
#103 = CIRCLE ( 'NONE', #42, 6.350000000003989342 ) ;
#104 = DIRECTION ( 'NONE',  ( -1.000000000000000000, 0.000000000000000000, 0.000000000000000000 ) ) ;
#105 = EDGE_CURVE ( 'NONE', #112, #18, #103, .T. ) ;
#106 = CIRCLE ( 'NONE', #1, 6.349999999999999645 ) ;
#107 = CC_DESIGN_PERSON_AND_ORGANIZATION_ASSIGNMENT ( #171, #126, ( #159 ) ) ;
#108 = APPROVAL_STATUS ( 'not_yet_approved' ) ;
#109 = DIRECTION ( 'NONE',  ( -1.000000000000000000, 0.000000000000000000, 0.000000000000000000 ) ) ;
#110 = LOCAL_TIME ( 12, 34, 15.00000000000000000, #97 ) ;
#111 = CALENDAR_DATE ( 2021, 25, 2 ) ;
#112 = VERTEX_POINT ( 'NONE', #25 ) ;
#113 = FACE_OUTER_BOUND ( 'NONE', #132, .T. ) ;
#114 = PERSON ( 'UNSPECIFIED', 'UNSPECIFIED', 'UNSPECIFIED', ('UNSPECIFIED'), ('UNSPECIFIED'), ('UNSPECIFIED') ) ;
#115 = EDGE_LOOP ( 'NONE', ( #148, #49, #69, #143 ) ) ;
#116 = DIRECTION ( 'NONE',  ( 1.000000000000000000, 0.000000000000000000, 0.000000000000000000 ) ) ;
#117 = PLANE ( 'NONE',  #12 ) ;
#118 = ADVANCED_BREP_SHAPE_REPRESENTATION ( '010-1109T6_UVFS_PCV_window', ( #199, #136 ), #67 ) ;
#119 = ORGANIZATION ( 'UNSPECIFIED', 'UNSPECIFIED', '' ) ;
#120 = DIRECTION ( 'NONE',  ( 1.000000000000000000, 0.000000000000000000, 0.000000000000000000 ) ) ;
#121 = UNCERTAINTY_MEASURE_WITH_UNIT (LENGTH_MEASURE( 1.000000000000000082E-05 ), #73, 'distance_accuracy_value', 'NONE');
#122 = PERSON_AND_ORGANIZATION ( #114, #119 ) ;
#123 = CC_DESIGN_DATE_AND_TIME_ASSIGNMENT ( #142, #82, ( #159 ) ) ;
#124 = CIRCLE ( 'NONE', #15, 400.0000000000000000 ) ;
#125 = APPROVAL_DATE_TIME ( #144, #51 ) ;
#126 = PERSON_AND_ORGANIZATION_ROLE ( 'creator' ) ;
#127 = CARTESIAN_POINT ( 'NONE',  ( 0.000000000000000000, 0.000000000000000000, 0.000000000000000000 ) ) ;
#128 = PERSON_AND_ORGANIZATION ( #114, #119 ) ;
#129 = AXIS2_PLACEMENT_3D ( 'NONE', #134, #11, #104 ) ;
#130 = DIRECTION ( 'NONE',  ( -0.000000000000000000, -0.000000000000000000, -1.000000000000000000 ) ) ;
#131 = DIRECTION ( 'NONE',  ( 1.000000000000000000, 0.000000000000000000, 0.000000000000000000 ) ) ;
#132 = EDGE_LOOP ( 'NONE', ( #172, #177, #52, #87 ) ) ;
#133 = ORIENTED_EDGE ( 'NONE', *, *, #167, .F. ) ;
#134 = CARTESIAN_POINT ( 'NONE',  ( 0.000000000000000000, 0.000000000000000000, 6.000000000000000000 ) ) ;
#135 = CARTESIAN_POINT ( 'NONE',  ( 6.349999999999999645, 7.776507174585692163E-16, 0.000000000000000000 ) ) ;
#136 = AXIS2_PLACEMENT_3D ( 'NONE', #127, #170, #47 ) ;
#137 = SECURITY_CLASSIFICATION ( '', '', #185 ) ;
#138 = APPROVAL_DATE_TIME ( #93, #46 ) ;
#139 = DATE_AND_TIME ( #44, #110 ) ;
#140 = APPROVAL_ROLE ( '' ) ;
#141 = ADVANCED_FACE ( 'NONE', ( #8 ), #117, .F. ) ;
#142 = DATE_AND_TIME ( #17, #168 ) ;
#143 = ORIENTED_EDGE ( 'NONE', *, *, #189, .F. ) ;
#144 = DATE_AND_TIME ( #200, #75 ) ;
#145 = LINE ( 'NONE', #66, #90 ) ;
#146 = CARTESIAN_POINT ( 'NONE',  ( 5.030698080332740574E-14, 0.000000000000000000, 405.9495936990060159 ) ) ;
#147 = CARTESIAN_POINT ( 'NONE',  ( 0.000000000000000000, 0.000000000000000000, 0.000000000000000000 ) ) ;
#148 = ORIENTED_EDGE ( 'NONE', *, *, #105, .T. ) ;
#149 = CARTESIAN_POINT ( 'NONE',  ( 5.030698080332740574E-14, 0.000000000000000000, 405.9495936990060159 ) ) ;
#150 = CARTESIAN_POINT ( 'NONE',  ( -6.349999999999999645, 0.000000000000000000, 6.000000000000000000 ) ) ;
#151 =( NAMED_UNIT ( * ) PLANE_ANGLE_UNIT ( ) SI_UNIT ( $, .RADIAN. ) );
#152 = AXIS2_PLACEMENT_3D ( 'NONE', #149, #9, #116 ) ;
#153 = PERSON_AND_ORGANIZATION_ROLE ( 'design_owner' ) ;
#154 = PERSON_AND_ORGANIZATION ( #114, #119 ) ;
#155 = CC_DESIGN_DATE_AND_TIME_ASSIGNMENT ( #2, #30, ( #137 ) ) ;
#156 = PRODUCT_DEFINITION_SHAPE ( 'NONE', 'NONE',  #159 ) ;
#157 = DIRECTION ( 'NONE',  ( 1.000000000000000000, 1.224646799147353207E-16, 0.000000000000000000 ) ) ;
#158 = SPHERICAL_SURFACE ( 'NONE', #176, 400.0000000000000000 ) ;
#159 = PRODUCT_DEFINITION ( 'UNKNOWN', '', #160, #166 ) ;
#160 = PRODUCT_DEFINITION_FORMATION_WITH_SPECIFIED_SOURCE ( 'ANY', '', #36, .NOT_KNOWN. ) ;
#161 = ORIENTED_EDGE ( 'NONE', *, *, #16, .F. ) ;
#162 = ADVANCED_FACE ( 'NONE', ( #56 ), #180, .T. ) ;
#163 = ORIENTED_EDGE ( 'NONE', *, *, #29, .T. ) ;
#164 = DIRECTION ( 'NONE',  ( 1.000000000000000000, 0.000000000000000000, -0.000000000000000000 ) ) ;
#165 = CIRCLE ( 'NONE', #27, 6.349999999999999645 ) ;
#166 = DESIGN_CONTEXT ( 'detailed design', #96, 'design' ) ;
#167 = EDGE_CURVE ( 'NONE', #18, #37, #28, .T. ) ;
#168 = LOCAL_TIME ( 12, 34, 15.00000000000000000, #169 ) ;
#169 = COORDINATED_UNIVERSAL_TIME_OFFSET ( 2, 0, .AHEAD. ) ;
#170 = DIRECTION ( 'NONE',  ( 0.000000000000000000, 0.000000000000000000, 1.000000000000000000 ) ) ;
#171 = PERSON_AND_ORGANIZATION ( #114, #119 ) ;
#172 = ORIENTED_EDGE ( 'NONE', *, *, #43, .F. ) ;
#173 = APPROVAL_STATUS ( 'not_yet_approved' ) ;
#174 = ORIENTED_EDGE ( 'NONE', *, *, #182, .F. ) ;
#175 = DIRECTION ( 'NONE',  ( -0.000000000000000000, -0.000000000000000000, -1.000000000000000000 ) ) ;
#176 = AXIS2_PLACEMENT_3D ( 'NONE', #146, #7, #131 ) ;
#177 = ORIENTED_EDGE ( 'NONE', *, *, #182, .T. ) ;
#178 = EDGE_LOOP ( 'NONE', ( #22, #163, #133 ) ) ;
#179 = CARTESIAN_POINT ( 'NONE',  ( 5.030698080332740574E-14, 0.000000000000000000, 405.9495936990060159 ) ) ;
#180 = CYLINDRICAL_SURFACE ( 'NONE', #129, 6.349999999999999645 ) ;
#181 = APPLICATION_CONTEXT ( 'configuration controlled 3d designs of mechanical parts and assemblies' ) ;
#182 = EDGE_CURVE ( 'NONE', #18, #112, #53, .T. ) ;
#183 = PERSON_AND_ORGANIZATION_ROLE ( 'design_supplier' ) ;
#184 = CC_DESIGN_APPROVAL ( #51, ( #160 ) ) ;
#185 = SECURITY_CLASSIFICATION_LEVEL ( 'unclassified' ) ;
#186 = APPROVAL_STATUS ( 'not_yet_approved' ) ;
#187 = CARTESIAN_POINT ( 'NONE',  ( 0.000000000000000000, 0.000000000000000000, 6.000000000000000000 ) ) ;
#188 = COORDINATED_UNIVERSAL_TIME_OFFSET ( 2, 0, .AHEAD. ) ;
#189 = EDGE_CURVE ( 'NONE', #112, #50, #55, .T. ) ;
#190 = CARTESIAN_POINT ( 'NONE',  ( -6.349999999999999645, 0.000000000000000000, 0.000000000000000000 ) ) ;
#191 = ORIENTED_EDGE ( 'NONE', *, *, #29, .F. ) ;
#192 = CC_DESIGN_PERSON_AND_ORGANIZATION_ASSIGNMENT ( #63, #65, ( #137 ) ) ;
#193 = DIRECTION ( 'NONE',  ( 1.000000000000000000, 0.000000000000000000, 0.000000000000000000 ) ) ;
#194 = CARTESIAN_POINT ( 'NONE',  ( 5.030698080332740574E-14, 0.000000000000000000, 6.000000000000005329 ) ) ;
#195 = CARTESIAN_POINT ( 'NONE',  ( 0.000000000000000000, 0.000000000000000000, 0.000000000000000000 ) ) ;
#196 = APPROVAL_PERSON_ORGANIZATION ( #128, #46, #140 ) ;
#197 = DIRECTION ( 'NONE',  ( -0.000000000000000000, -0.000000000000000000, -1.000000000000000000 ) ) ;
#198 = APPROVAL_PERSON_ORGANIZATION ( #79, #71, #34 ) ;
#199 = MANIFOLD_SOLID_BREP ( 'Cut-Revolve1', #77 ) ;
#200 = CALENDAR_DATE ( 2021, 25, 2 ) ;
#201 = APPROVAL_DATE_TIME ( #139, #71 ) ;
ENDSEC;
END-ISO-10303-21;
