ISO-10303-21;
HEADER;
FILE_DESCRIPTION (( 'STEP AP203' ),
    '1' );
FILE_NAME ('010-1109E_UVFS_PCV_window.STEP',
    '2021-02-25T08:33:46',
    ( '' ),
    ( '' ),
    'SwSTEP 2.0',
    'SolidWorks 2019',
    '' );
FILE_SCHEMA (( 'CONFIG_CONTROL_DESIGN' ));
ENDSEC;

DATA;
#1 = ORIENTED_EDGE ( 'NONE', *, *, #20, .T. ) ;
#2 = ORIENTED_EDGE ( 'NONE', *, *, #101, .T. ) ;
#3 = CARTESIAN_POINT ( 'NONE',  ( 0.000000000000000000, 0.000000000000000000, 3.000000000000000000 ) ) ;
#4 = EDGE_CURVE ( 'NONE', #36, #179, #73, .T. ) ;
#5 = CC_DESIGN_PERSON_AND_ORGANIZATION_ASSIGNMENT ( #185, #25, ( #164 ) ) ;
#6 = PRODUCT ( '010-1109E_UVFS_PCV_window', '010-1109E_UVFS_PCV_window', '', ( #43 ) ) ;
#7 = ORIENTED_EDGE ( 'NONE', *, *, #184, .F. ) ;
#8 = AXIS2_PLACEMENT_3D ( 'NONE', #18, #190, #35 ) ;
#9 = APPROVAL_ROLE ( '' ) ;
#10 = PRODUCT_RELATED_PRODUCT_CATEGORY ( 'detail', '', ( #6 ) ) ;
#11 = CARTESIAN_POINT ( 'NONE',  ( 5.030698080332740574E-14, 0.000000000000000000, 402.9495936990060159 ) ) ;
#12 = DIRECTION ( 'NONE',  ( 0.000000000000000000, -1.000000000000000000, -0.000000000000000000 ) ) ;
#13 = CC_DESIGN_APPROVAL ( #22, ( #52 ) ) ;
#14 = APPLICATION_PROTOCOL_DEFINITION ( 'international standard', 'config_control_design', 1994, #65 ) ;
#15 = CARTESIAN_POINT ( 'NONE',  ( 0.000000000000000000, 0.000000000000000000, 0.000000000000000000 ) ) ;
#16 = DIRECTION ( 'NONE',  ( 1.000000000000000000, 0.000000000000000000, 0.000000000000000000 ) ) ;
#17 = ORIENTED_EDGE ( 'NONE', *, *, #67, .F. ) ;
#18 = CARTESIAN_POINT ( 'NONE',  ( 5.030698080332740574E-14, 0.000000000000000000, 402.9495936990060159 ) ) ;
#19 = DIRECTION ( 'NONE',  ( 1.000000000000000000, 0.000000000000000000, 0.000000000000000000 ) ) ;
#20 = EDGE_CURVE ( 'NONE', #179, #36, #138, .T. ) ;
#21 = LOCAL_TIME ( 10, 33, 46.00000000000000000, #195 ) ;
#22 = APPROVAL ( #71, 'UNSPECIFIED' ) ;
#23 = ORIENTED_EDGE ( 'NONE', *, *, #132, .T. ) ;
#24 = VERTEX_POINT ( 'NONE', #113 ) ;
#25 = PERSON_AND_ORGANIZATION_ROLE ( 'design_supplier' ) ;
#26 = APPROVAL_STATUS ( 'not_yet_approved' ) ;
#27 = LOCAL_TIME ( 10, 33, 46.00000000000000000, #105 ) ;
#28 = COORDINATED_UNIVERSAL_TIME_OFFSET ( 2, 0, .AHEAD. ) ;
#29 = CC_DESIGN_DATE_AND_TIME_ASSIGNMENT ( #103, #72, ( #157 ) ) ;
#30 = APPROVAL_ROLE ( '' ) ;
#31 = CC_DESIGN_PERSON_AND_ORGANIZATION_ASSIGNMENT ( #61, #125, ( #6 ) ) ;
#32 = PERSON_AND_ORGANIZATION ( #156, #116 ) ;
#33 = DIRECTION ( 'NONE',  ( 0.000000000000000000, 0.000000000000000000, 1.000000000000000000 ) ) ;
#34 = MANIFOLD_SOLID_BREP ( 'Cut-Revolve1', #127 ) ;
#35 = DIRECTION ( 'NONE',  ( 0.000000000000000000, 0.000000000000000000, 1.000000000000000000 ) ) ;
#36 = VERTEX_POINT ( 'NONE', #68 ) ;
#37 = ORIENTED_EDGE ( 'NONE', *, *, #4, .F. ) ;
#38 = ADVANCED_FACE ( 'NONE', ( #129 ), #131, .F. ) ;
#39 = ORIENTED_EDGE ( 'NONE', *, *, #171, .T. ) ;
#40 = AXIS2_PLACEMENT_3D ( 'NONE', #81, #33, #110 ) ;
#41 = APPROVAL_PERSON_ORGANIZATION ( #196, #22, #74 ) ;
#42 = LOCAL_TIME ( 10, 33, 46.00000000000000000, #137 ) ;
#43 = MECHANICAL_CONTEXT ( 'NONE', #143, 'mechanical' ) ;
#44 = AXIS2_PLACEMENT_3D ( 'NONE', #178, #64, #19 ) ;
#45 = ORIENTED_EDGE ( 'NONE', *, *, #4, .T. ) ;
#46 = ORIENTED_EDGE ( 'NONE', *, *, #171, .F. ) ;
#47 = CC_DESIGN_DATE_AND_TIME_ASSIGNMENT ( #119, #154, ( #52 ) ) ;
#48 = CARTESIAN_POINT ( 'NONE',  ( 0.000000000000000000, 0.000000000000000000, 3.000000000000000000 ) ) ;
#49 = AXIS2_PLACEMENT_3D ( 'NONE', #3, #201, #193 ) ;
#50 = FACE_OUTER_BOUND ( 'NONE', #117, .T. ) ;
#51 = VERTEX_POINT ( 'NONE', #66 ) ;
#52 = SECURITY_CLASSIFICATION ( '', '', #54 ) ;
#53 = COORDINATED_UNIVERSAL_TIME_OFFSET ( 2, 0, .AHEAD. ) ;
#54 = SECURITY_CLASSIFICATION_LEVEL ( 'unclassified' ) ;
#55 = ADVANCED_FACE ( 'NONE', ( #191 ), #192, .T. ) ;
#56 = DATE_AND_TIME ( #102, #82 ) ;
#57 = CC_DESIGN_PERSON_AND_ORGANIZATION_ASSIGNMENT ( #122, #58, ( #164 ) ) ;
#58 = PERSON_AND_ORGANIZATION_ROLE ( 'creator' ) ;
#59 = DATE_AND_TIME ( #169, #27 ) ;
#60 = CIRCLE ( 'NONE', #158, 400.0000000000000000 ) ;
#61 = PERSON_AND_ORGANIZATION ( #156, #116 ) ;
#62 = DIRECTION ( 'NONE',  ( 1.000000000000000000, 0.000000000000000000, 0.000000000000000000 ) ) ;
#63 =( GEOMETRIC_REPRESENTATION_CONTEXT ( 3 ) GLOBAL_UNCERTAINTY_ASSIGNED_CONTEXT ( ( #186 ) ) GLOBAL_UNIT_ASSIGNED_CONTEXT ( ( #126, #92, #96 ) ) REPRESENTATION_CONTEXT ( 'NONE', 'WORKASPACE' ) );
#64 = DIRECTION ( 'NONE',  ( -0.000000000000000000, -0.000000000000000000, -1.000000000000000000 ) ) ;
#65 = APPLICATION_CONTEXT ( 'configuration controlled 3d designs of mechanical parts and assemblies' ) ;
#66 = CARTESIAN_POINT ( 'NONE',  ( 6.349999999999999645, 7.776507174585692163E-16, 0.000000000000000000 ) ) ;
#67 = EDGE_CURVE ( 'NONE', #36, #51, #97, .T. ) ;
#68 = CARTESIAN_POINT ( 'NONE',  ( 6.350000000004039080, 7.776507174590639307E-16, 3.000000000000002665 ) ) ;
#69 = AXIS2_PLACEMENT_3D ( 'NONE', #15, #128, #16 ) ;
#70 = CC_DESIGN_SECURITY_CLASSIFICATION ( #52, ( #164 ) ) ;
#71 = APPROVAL_STATUS ( 'not_yet_approved' ) ;
#72 = DATE_TIME_ROLE ( 'creation_date' ) ;
#73 = CIRCLE ( 'NONE', #124, 6.350000000003989342 ) ;
#74 = APPROVAL_ROLE ( '' ) ;
#75 = CARTESIAN_POINT ( 'NONE',  ( 5.030698080332740574E-14, 0.000000000000000000, 402.9495936990060159 ) ) ;
#76 = FACE_OUTER_BOUND ( 'NONE', #99, .T. ) ;
#77 = SPHERICAL_SURFACE ( 'NONE', #85, 400.0000000000000000 ) ;
#78 = ADVANCED_FACE ( 'NONE', ( #50 ), #165, .T. ) ;
#79 = CARTESIAN_POINT ( 'NONE',  ( -6.349999999999999645, 0.000000000000000000, 0.000000000000000000 ) ) ;
#80 = CC_DESIGN_PERSON_AND_ORGANIZATION_ASSIGNMENT ( #136, #139, ( #157 ) ) ;
#81 = CARTESIAN_POINT ( 'NONE',  ( 0.000000000000000000, 0.000000000000000000, 0.000000000000000000 ) ) ;
#82 = LOCAL_TIME ( 10, 33, 46.00000000000000000, #53 ) ;
#83 = CARTESIAN_POINT ( 'NONE',  ( 5.030698080332740574E-14, 0.000000000000000000, 3.000000000000002665 ) ) ;
#84 = LINE ( 'NONE', #111, #151 ) ;
#85 = AXIS2_PLACEMENT_3D ( 'NONE', #176, #108, #198 ) ;
#86 = APPROVAL ( #26, 'UNSPECIFIED' ) ;
#87 = PERSON_AND_ORGANIZATION ( #156, #116 ) ;
#88 = VERTEX_POINT ( 'NONE', #79 ) ;
#89 = CALENDAR_DATE ( 2021, 25, 2 ) ;
#90 = CIRCLE ( 'NONE', #40, 6.349999999999999645 ) ;
#91 = APPROVAL_DATE_TIME ( #56, #22 ) ;
#92 =( NAMED_UNIT ( * ) PLANE_ANGLE_UNIT ( ) SI_UNIT ( $, .RADIAN. ) );
#93 = AXIS2_PLACEMENT_3D ( 'NONE', #199, #188, #141 ) ;
#94 = FACE_OUTER_BOUND ( 'NONE', #200, .T. ) ;
#95 = EDGE_CURVE ( 'NONE', #51, #88, #153, .T. ) ;
#96 =( NAMED_UNIT ( * ) SI_UNIT ( $, .STERADIAN. ) SOLID_ANGLE_UNIT ( ) );
#97 = LINE ( 'NONE', #181, #100 ) ;
#98 = DIRECTION ( 'NONE',  ( -0.000000000000000000, -0.000000000000000000, -1.000000000000000000 ) ) ;
#99 = EDGE_LOOP ( 'NONE', ( #145, #182, #155 ) ) ;
#100 = VECTOR ( 'NONE', #133, 1000.000000000000000 ) ;
#101 = EDGE_CURVE ( 'NONE', #36, #24, #106, .T. ) ;
#102 = CALENDAR_DATE ( 2021, 25, 2 ) ;
#103 = DATE_AND_TIME ( #121, #21 ) ;
#104 = PERSON_AND_ORGANIZATION ( #156, #116 ) ;
#105 = COORDINATED_UNIVERSAL_TIME_OFFSET ( 2, 0, .AHEAD. ) ;
#106 = CIRCLE ( 'NONE', #8, 400.0000000000000568 ) ;
#107 = APPROVAL_STATUS ( 'not_yet_approved' ) ;
#108 = DIRECTION ( 'NONE',  ( 0.000000000000000000, -1.000000000000000000, -0.000000000000000000 ) ) ;
#109 = CC_DESIGN_APPROVAL ( #123, ( #157 ) ) ;
#110 = DIRECTION ( 'NONE',  ( 1.000000000000000000, 0.000000000000000000, 0.000000000000000000 ) ) ;
#111 = CARTESIAN_POINT ( 'NONE',  ( -6.349999999999999645, 0.000000000000000000, 3.000000000000000000 ) ) ;
#112 = DIRECTION ( 'NONE',  ( -0.000000000000000000, -0.000000000000000000, -1.000000000000000000 ) ) ;
#113 = CARTESIAN_POINT ( 'NONE',  ( 7.479991678627446061E-14, 0.000000000000000000, 2.949593699005992331 ) ) ;
#114 = DIRECTION ( 'NONE',  ( -0.000000000000000000, -0.000000000000000000, -1.000000000000000000 ) ) ;
#115 = EDGE_LOOP ( 'NONE', ( #46, #166 ) ) ;
#116 = ORGANIZATION ( 'UNSPECIFIED', 'UNSPECIFIED', '' ) ;
#117 = EDGE_LOOP ( 'NONE', ( #17, #45, #23, #39 ) ) ;
#118 = SHAPE_DEFINITION_REPRESENTATION ( #168, #148 ) ;
#119 = DATE_AND_TIME ( #89, #174 ) ;
#120 = AXIS2_PLACEMENT_3D ( 'NONE', #11, #12, #159 ) ;
#121 = CALENDAR_DATE ( 2021, 25, 2 ) ;
#122 = PERSON_AND_ORGANIZATION ( #156, #116 ) ;
#123 = APPROVAL ( #107, 'UNSPECIFIED' ) ;
#124 = AXIS2_PLACEMENT_3D ( 'NONE', #83, #98, #62 ) ;
#125 = PERSON_AND_ORGANIZATION_ROLE ( 'design_owner' ) ;
#126 =( LENGTH_UNIT ( ) NAMED_UNIT ( * ) SI_UNIT ( .MILLI., .METRE. ) );
#127 = CLOSED_SHELL ( 'NONE', ( #197, #55, #78, #38, #180 ) ) ;
#128 = DIRECTION ( 'NONE',  ( 0.000000000000000000, 0.000000000000000000, 1.000000000000000000 ) ) ;
#129 = FACE_OUTER_BOUND ( 'NONE', #115, .T. ) ;
#130 = ORIENTED_EDGE ( 'NONE', *, *, #95, .T. ) ;
#131 = PLANE ( 'NONE',  #167 ) ;
#132 = EDGE_CURVE ( 'NONE', #179, #88, #84, .T. ) ;
#133 = DIRECTION ( 'NONE',  ( -0.000000000000000000, -0.000000000000000000, -1.000000000000000000 ) ) ;
#134 = APPROVAL_PERSON_ORGANIZATION ( #32, #123, #30 ) ;
#135 = PERSON_AND_ORGANIZATION_ROLE ( 'classification_officer' ) ;
#136 = PERSON_AND_ORGANIZATION ( #156, #116 ) ;
#137 = COORDINATED_UNIVERSAL_TIME_OFFSET ( 2, 0, .AHEAD. ) ;
#138 = CIRCLE ( 'NONE', #44, 6.350000000003989342 ) ;
#139 = PERSON_AND_ORGANIZATION_ROLE ( 'creator' ) ;
#140 = CALENDAR_DATE ( 2021, 25, 2 ) ;
#141 = DIRECTION ( 'NONE',  ( 1.000000000000000000, 0.000000000000000000, 0.000000000000000000 ) ) ;
#142 = APPROVAL_PERSON_ORGANIZATION ( #87, #86, #9 ) ;
#143 = APPLICATION_CONTEXT ( 'configuration controlled 3d designs of mechanical parts and assemblies' ) ;
#144 = DIRECTION ( 'NONE',  ( 1.000000000000000000, 1.224646799147353207E-16, 0.000000000000000000 ) ) ;
#145 = ORIENTED_EDGE ( 'NONE', *, *, #20, .F. ) ;
#146 = CC_DESIGN_APPROVAL ( #86, ( #164 ) ) ;
#147 = DIRECTION ( 'NONE',  ( 0.000000000000000000, 0.000000000000000000, 1.000000000000000000 ) ) ;
#148 = ADVANCED_BREP_SHAPE_REPRESENTATION ( '010-1109E_UVFS_PCV_window', ( #34, #93 ), #63 ) ;
#149 = CARTESIAN_POINT ( 'NONE',  ( 0.000000000000000000, 0.000000000000000000, 0.000000000000000000 ) ) ;
#150 = CC_DESIGN_PERSON_AND_ORGANIZATION_ASSIGNMENT ( #104, #135, ( #52 ) ) ;
#151 = VECTOR ( 'NONE', #112, 1000.000000000000000 ) ;
#152 = DIRECTION ( 'NONE',  ( -1.000000000000000000, 0.000000000000000000, 0.000000000000000000 ) ) ;
#153 = CIRCLE ( 'NONE', #69, 6.349999999999999645 ) ;
#154 = DATE_TIME_ROLE ( 'classification_date' ) ;
#155 = ORIENTED_EDGE ( 'NONE', *, *, #101, .F. ) ;
#156 = PERSON ( 'UNSPECIFIED', 'UNSPECIFIED', 'UNSPECIFIED', ('UNSPECIFIED'), ('UNSPECIFIED'), ('UNSPECIFIED') ) ;
#157 = PRODUCT_DEFINITION ( 'UNKNOWN', '', #164, #160 ) ;
#158 = AXIS2_PLACEMENT_3D ( 'NONE', #75, #161, #144 ) ;
#159 = DIRECTION ( 'NONE',  ( 1.000000000000000000, 0.000000000000000000, 0.000000000000000000 ) ) ;
#160 = DESIGN_CONTEXT ( 'detailed design', #65, 'design' ) ;
#161 = DIRECTION ( 'NONE',  ( 1.224646799147353207E-16, -1.000000000000000000, 0.000000000000000000 ) ) ;
#162 = ORIENTED_EDGE ( 'NONE', *, *, #67, .T. ) ;
#163 = DIRECTION ( 'NONE',  ( 1.000000000000000000, 0.000000000000000000, -0.000000000000000000 ) ) ;
#164 = PRODUCT_DEFINITION_FORMATION_WITH_SPECIFIED_SOURCE ( 'ANY', '', #6, .NOT_KNOWN. ) ;
#165 = CYLINDRICAL_SURFACE ( 'NONE', #49, 6.349999999999999645 ) ;
#166 = ORIENTED_EDGE ( 'NONE', *, *, #95, .F. ) ;
#167 = AXIS2_PLACEMENT_3D ( 'NONE', #149, #147, #163 ) ;
#168 = PRODUCT_DEFINITION_SHAPE ( 'NONE', 'NONE',  #157 ) ;
#169 = CALENDAR_DATE ( 2021, 25, 2 ) ;
#170 = APPROVAL_DATE_TIME ( #59, #86 ) ;
#171 = EDGE_CURVE ( 'NONE', #88, #51, #90, .T. ) ;
#172 = APPROVAL_DATE_TIME ( #173, #123 ) ;
#173 = DATE_AND_TIME ( #140, #42 ) ;
#174 = LOCAL_TIME ( 10, 33, 46.00000000000000000, #28 ) ;
#175 = APPLICATION_PROTOCOL_DEFINITION ( 'international standard', 'config_control_design', 1994, #143 ) ;
#176 = CARTESIAN_POINT ( 'NONE',  ( 5.030698080332740574E-14, 0.000000000000000000, 402.9495936990060159 ) ) ;
#177 = CARTESIAN_POINT ( 'NONE',  ( -6.350000000003939604, 0.000000000000000000, 3.000000000000002665 ) ) ;
#178 = CARTESIAN_POINT ( 'NONE',  ( 5.030698080332740574E-14, 0.000000000000000000, 3.000000000000002665 ) ) ;
#179 = VERTEX_POINT ( 'NONE', #177 ) ;
#180 = ADVANCED_FACE ( 'NONE', ( #94 ), #187, .F. ) ;
#181 = CARTESIAN_POINT ( 'NONE',  ( 6.349999999999999645, 7.776507174585692163E-16, 3.000000000000000000 ) ) ;
#182 = ORIENTED_EDGE ( 'NONE', *, *, #184, .T. ) ;
#183 = EDGE_LOOP ( 'NONE', ( #1, #162, #130, #194 ) ) ;
#184 = EDGE_CURVE ( 'NONE', #179, #24, #60, .T. ) ;
#185 = PERSON_AND_ORGANIZATION ( #156, #116 ) ;
#186 = UNCERTAINTY_MEASURE_WITH_UNIT (LENGTH_MEASURE( 1.000000000000000082E-05 ), #126, 'distance_accuracy_value', 'NONE');
#187 = SPHERICAL_SURFACE ( 'NONE', #120, 400.0000000000000000 ) ;
#188 = DIRECTION ( 'NONE',  ( 0.000000000000000000, 0.000000000000000000, 1.000000000000000000 ) ) ;
#189 = AXIS2_PLACEMENT_3D ( 'NONE', #48, #114, #152 ) ;
#190 = DIRECTION ( 'NONE',  ( 0.000000000000000000, 1.000000000000000000, -0.000000000000000000 ) ) ;
#191 = FACE_OUTER_BOUND ( 'NONE', #183, .T. ) ;
#192 = CYLINDRICAL_SURFACE ( 'NONE', #189, 6.349999999999999645 ) ;
#193 = DIRECTION ( 'NONE',  ( -1.000000000000000000, 0.000000000000000000, 0.000000000000000000 ) ) ;
#194 = ORIENTED_EDGE ( 'NONE', *, *, #132, .F. ) ;
#195 = COORDINATED_UNIVERSAL_TIME_OFFSET ( 2, 0, .AHEAD. ) ;
#196 = PERSON_AND_ORGANIZATION ( #156, #116 ) ;
#197 = ADVANCED_FACE ( 'NONE', ( #76 ), #77, .F. ) ;
#198 = DIRECTION ( 'NONE',  ( 1.000000000000000000, 0.000000000000000000, 0.000000000000000000 ) ) ;
#199 = CARTESIAN_POINT ( 'NONE',  ( 0.000000000000000000, 0.000000000000000000, 0.000000000000000000 ) ) ;
#200 = EDGE_LOOP ( 'NONE', ( #7, #37, #2 ) ) ;
#201 = DIRECTION ( 'NONE',  ( -0.000000000000000000, -0.000000000000000000, -1.000000000000000000 ) ) ;
ENDSEC;
END-ISO-10303-21;
