ISO-10303-21;
HEADER;
FILE_DESCRIPTION (( 'STEP AP203' ),
    '1' );
FILE_NAME ('010-1108T6_UVFS_PCV_window.STEP',
    '2021-02-25T10:33:44',
    ( '' ),
    ( '' ),
    'SwSTEP 2.0',
    'SolidWorks 2019',
    '' );
FILE_SCHEMA (( 'CONFIG_CONTROL_DESIGN' ));
ENDSEC;

DATA;
#1 = CARTESIAN_POINT ( 'NONE',  ( 0.000000000000000000, 0.000000000000000000, 6.000000000000000000 ) ) ;
#2 = SPHERICAL_SURFACE ( 'NONE', #61, 200.0000000000000000 ) ;
#3 = AXIS2_PLACEMENT_3D ( 'NONE', #87, #144, #71 ) ;
#4 = EDGE_LOOP ( 'NONE', ( #185, #81, #128, #76 ) ) ;
#5 = APPROVAL_DATE_TIME ( #156, #168 ) ;
#6 = SECURITY_CLASSIFICATION ( '', '', #37 ) ;
#7 = CARTESIAN_POINT ( 'NONE',  ( -6.349999999999999645, 0.000000000000000000, 0.000000000000000000 ) ) ;
#8 = FACE_OUTER_BOUND ( 'NONE', #47, .T. ) ;
#9 = PERSON_AND_ORGANIZATION_ROLE ( 'design_owner' ) ;
#10 = PERSON_AND_ORGANIZATION_ROLE ( 'creator' ) ;
#11 = APPROVAL_PERSON_ORGANIZATION ( #166, #40, #132 ) ;
#12 = CLOSED_SHELL ( 'NONE', ( #90, #136, #143, #26, #51 ) ) ;
#13 = DIRECTION ( 'NONE',  ( 1.000000000000000000, 0.000000000000000000, 0.000000000000000000 ) ) ;
#14 = ORIENTED_EDGE ( 'NONE', *, *, #60, .T. ) ;
#15 = ORIENTED_EDGE ( 'NONE', *, *, #109, .F. ) ;
#16 = VERTEX_POINT ( 'NONE', #31 ) ;
#17 = CC_DESIGN_PERSON_AND_ORGANIZATION_ASSIGNMENT ( #72, #193, ( #199 ) ) ;
#18 = COORDINATED_UNIVERSAL_TIME_OFFSET ( 2, 0, .AHEAD. ) ;
#19 = APPLICATION_PROTOCOL_DEFINITION ( 'international standard', 'config_control_design', 1994, #42 ) ;
#20 = DATE_AND_TIME ( #70, #44 ) ;
#21 = ORGANIZATION ( 'UNSPECIFIED', 'UNSPECIFIED', '' ) ;
#22 = DIRECTION ( 'NONE',  ( -1.000000000000000000, 0.000000000000000000, 0.000000000000000000 ) ) ;
#23 = APPROVAL_DATE_TIME ( #145, #40 ) ;
#24 = COORDINATED_UNIVERSAL_TIME_OFFSET ( 2, 0, .AHEAD. ) ;
#25 = MANIFOLD_SOLID_BREP ( 'Cut-Revolve1', #12 ) ;
#26 = ADVANCED_FACE ( 'NONE', ( #116 ), #157, .F. ) ;
#27 = ORIENTED_EDGE ( 'NONE', *, *, #60, .F. ) ;
#28 = CC_DESIGN_SECURITY_CLASSIFICATION ( #6, ( #46 ) ) ;
#29 = VECTOR ( 'NONE', #58, 1000.000000000000000 ) ;
#30 = CARTESIAN_POINT ( 'NONE',  ( 0.000000000000000000, 0.000000000000000000, 0.000000000000000000 ) ) ;
#31 = CARTESIAN_POINT ( 'NONE',  ( 3.826732013112563385E-14, 0.000000000000000000, 5.899168332437060513 ) ) ;
#32 = AXIS2_PLACEMENT_3D ( 'NONE', #78, #79, #200 ) ;
#33 = EDGE_LOOP ( 'NONE', ( #52, #153 ) ) ;
#34 = ORIENTED_EDGE ( 'NONE', *, *, #45, .F. ) ;
#35 = DIRECTION ( 'NONE',  ( 1.000000000000000000, 0.000000000000000000, 0.000000000000000000 ) ) ;
#36 = CARTESIAN_POINT ( 'NONE',  ( -6.349999999999591971, 0.000000000000000000, 6.000000000000005329 ) ) ;
#37 = SECURITY_CLASSIFICATION_LEVEL ( 'unclassified' ) ;
#38 = CARTESIAN_POINT ( 'NONE',  ( 6.349999999999999645, 7.776507174585692163E-16, 0.000000000000000000 ) ) ;
#39 = MECHANICAL_CONTEXT ( 'NONE', #42, 'mechanical' ) ;
#40 = APPROVAL ( #119, 'UNSPECIFIED' ) ;
#41 = CALENDAR_DATE ( 2021, 25, 2 ) ;
#42 = APPLICATION_CONTEXT ( 'configuration controlled 3d designs of mechanical parts and assemblies' ) ;
#43 = CIRCLE ( 'NONE', #114, 6.349999999999999645 ) ;
#44 = LOCAL_TIME ( 12, 33, 44.00000000000000000, #188 ) ;
#45 = EDGE_CURVE ( 'NONE', #54, #151, #170, .T. ) ;
#46 = PRODUCT_DEFINITION_FORMATION_WITH_SPECIFIED_SOURCE ( 'ANY', '', #152, .NOT_KNOWN. ) ;
#47 = EDGE_LOOP ( 'NONE', ( #34, #14, #82, #48 ) ) ;
#48 = ORIENTED_EDGE ( 'NONE', *, *, #123, .T. ) ;
#49 = CIRCLE ( 'NONE', #198, 6.349999999999999645 ) ;
#50 = PERSON_AND_ORGANIZATION ( #96, #21 ) ;
#51 = ADVANCED_FACE ( 'NONE', ( #129 ), #2, .F. ) ;
#52 = ORIENTED_EDGE ( 'NONE', *, *, #123, .F. ) ;
#53 = APPLICATION_PROTOCOL_DEFINITION ( 'international standard', 'config_control_design', 1994, #100 ) ;
#54 = VERTEX_POINT ( 'NONE', #127 ) ;
#55 = COORDINATED_UNIVERSAL_TIME_OFFSET ( 2, 0, .AHEAD. ) ;
#56 = CARTESIAN_POINT ( 'NONE',  ( 0.000000000000000000, 0.000000000000000000, 6.000000000000000000 ) ) ;
#57 = APPROVAL_ROLE ( '' ) ;
#58 = DIRECTION ( 'NONE',  ( -0.000000000000000000, -0.000000000000000000, -1.000000000000000000 ) ) ;
#59 = COORDINATED_UNIVERSAL_TIME_OFFSET ( 2, 0, .AHEAD. ) ;
#60 = EDGE_CURVE ( 'NONE', #54, #107, #68, .T. ) ;
#61 = AXIS2_PLACEMENT_3D ( 'NONE', #66, #184, #175 ) ;
#62 = DIRECTION ( 'NONE',  ( 1.000000000000000000, 0.000000000000000000, -0.000000000000000000 ) ) ;
#63 = FACE_OUTER_BOUND ( 'NONE', #4, .T. ) ;
#64 = APPROVAL_PERSON_ORGANIZATION ( #142, #192, #179 ) ;
#65 = DIRECTION ( 'NONE',  ( 0.000000000000000000, 0.000000000000000000, 1.000000000000000000 ) ) ;
#66 = CARTESIAN_POINT ( 'NONE',  ( 2.602085213965210642E-14, 0.000000000000000000, 205.8991683324370854 ) ) ;
#67 = PRODUCT_DEFINITION_SHAPE ( 'NONE', 'NONE',  #199 ) ;
#68 = CIRCLE ( 'NONE', #181, 6.349999999999617728 ) ;
#69 = CARTESIAN_POINT ( 'NONE',  ( 6.349999999999999645, 7.776507174585692163E-16, 6.000000000000000000 ) ) ;
#70 = CALENDAR_DATE ( 2021, 25, 2 ) ;
#71 = DIRECTION ( 'NONE',  ( 0.000000000000000000, 0.000000000000000000, 1.000000000000000000 ) ) ;
#72 = PERSON_AND_ORGANIZATION ( #96, #21 ) ;
#73 = PERSON_AND_ORGANIZATION_ROLE ( 'classification_officer' ) ;
#74 = APPROVAL_PERSON_ORGANIZATION ( #50, #168, #57 ) ;
#75 = CC_DESIGN_PERSON_AND_ORGANIZATION_ASSIGNMENT ( #147, #10, ( #46 ) ) ;
#76 = ORIENTED_EDGE ( 'NONE', *, *, #196, .F. ) ;
#77 = CC_DESIGN_PERSON_AND_ORGANIZATION_ASSIGNMENT ( #83, #158, ( #46 ) ) ;
#78 = CARTESIAN_POINT ( 'NONE',  ( 2.602085213965210642E-14, 0.000000000000000000, 205.8991683324370854 ) ) ;
#79 = DIRECTION ( 'NONE',  ( 0.000000000000000000, -1.000000000000000000, -0.000000000000000000 ) ) ;
#80 = CYLINDRICAL_SURFACE ( 'NONE', #167, 6.349999999999999645 ) ;
#81 = ORIENTED_EDGE ( 'NONE', *, *, #45, .T. ) ;
#82 = ORIENTED_EDGE ( 'NONE', *, *, #196, .T. ) ;
#83 = PERSON_AND_ORGANIZATION ( #96, #21 ) ;
#84 = DIRECTION ( 'NONE',  ( 1.224646799147353207E-16, -1.000000000000000000, 0.000000000000000000 ) ) ;
#85 = APPROVAL_STATUS ( 'not_yet_approved' ) ;
#86 = CC_DESIGN_DATE_AND_TIME_ASSIGNMENT ( #20, #190, ( #6 ) ) ;
#87 = CARTESIAN_POINT ( 'NONE',  ( 2.602085213965210642E-14, 0.000000000000000000, 205.8991683324370854 ) ) ;
#88 = APPROVAL_STATUS ( 'not_yet_approved' ) ;
#89 = AXIS2_PLACEMENT_3D ( 'NONE', #118, #84, #165 ) ;
#90 = ADVANCED_FACE ( 'NONE', ( #111 ), #159, .F. ) ;
#91 = CIRCLE ( 'NONE', #3, 200.0000000000000284 ) ;
#92 = AXIS2_PLACEMENT_3D ( 'NONE', #195, #104, #35 ) ;
#93 = DIRECTION ( 'NONE',  ( 0.000000000000000000, 0.000000000000000000, 1.000000000000000000 ) ) ;
#94 = CARTESIAN_POINT ( 'NONE',  ( 0.000000000000000000, 0.000000000000000000, 0.000000000000000000 ) ) ;
#95 = ORIENTED_EDGE ( 'NONE', *, *, #150, .F. ) ;
#96 = PERSON ( 'UNSPECIFIED', 'UNSPECIFIED', 'UNSPECIFIED', ('UNSPECIFIED'), ('UNSPECIFIED'), ('UNSPECIFIED') ) ;
#97 = PERSON_AND_ORGANIZATION ( #96, #21 ) ;
#98 = EDGE_LOOP ( 'NONE', ( #126, #27, #154 ) ) ;
#99 = CALENDAR_DATE ( 2021, 25, 2 ) ;
#100 = APPLICATION_CONTEXT ( 'configuration controlled 3d designs of mechanical parts and assemblies' ) ;
#101 = PERSON_AND_ORGANIZATION ( #96, #21 ) ;
#102 = DIRECTION ( 'NONE',  ( -0.000000000000000000, -0.000000000000000000, -1.000000000000000000 ) ) ;
#103 = DATE_AND_TIME ( #41, #178 ) ;
#104 = DIRECTION ( 'NONE',  ( 0.000000000000000000, 0.000000000000000000, 1.000000000000000000 ) ) ;
#105 = AXIS2_PLACEMENT_3D ( 'NONE', #56, #102, #22 ) ;
#106 = ADVANCED_BREP_SHAPE_REPRESENTATION ( '010-1108T6_UVFS_PCV_window', ( #25, #92 ), #148 ) ;
#107 = VERTEX_POINT ( 'NONE', #36 ) ;
#108 = CC_DESIGN_APPROVAL ( #40, ( #199 ) ) ;
#109 = EDGE_CURVE ( 'NONE', #107, #54, #134, .T. ) ;
#110 = LOCAL_TIME ( 12, 33, 44.00000000000000000, #18 ) ;
#111 = FACE_OUTER_BOUND ( 'NONE', #138, .T. ) ;
#112 = CARTESIAN_POINT ( 'NONE',  ( 2.602085213965210642E-14, 0.000000000000000000, 6.000000000000005329 ) ) ;
#113 = DIRECTION ( 'NONE',  ( -0.000000000000000000, -0.000000000000000000, -1.000000000000000000 ) ) ;
#114 = AXIS2_PLACEMENT_3D ( 'NONE', #169, #65, #137 ) ;
#115 = CALENDAR_DATE ( 2021, 25, 2 ) ;
#116 = FACE_OUTER_BOUND ( 'NONE', #33, .T. ) ;
#117 = DIRECTION ( 'NONE',  ( 1.000000000000000000, 0.000000000000000000, 0.000000000000000000 ) ) ;
#118 = CARTESIAN_POINT ( 'NONE',  ( 2.602085213965210642E-14, 0.000000000000000000, 205.8991683324370854 ) ) ;
#119 = APPROVAL_STATUS ( 'not_yet_approved' ) ;
#120 =( NAMED_UNIT ( * ) PLANE_ANGLE_UNIT ( ) SI_UNIT ( $, .RADIAN. ) );
#121 = CIRCLE ( 'NONE', #89, 200.0000000000000000 ) ;
#122 = CC_DESIGN_APPROVAL ( #168, ( #6 ) ) ;
#123 = EDGE_CURVE ( 'NONE', #189, #151, #43, .T. ) ;
#124 = DIRECTION ( 'NONE',  ( -0.000000000000000000, -0.000000000000000000, -1.000000000000000000 ) ) ;
#125 = EDGE_CURVE ( 'NONE', #151, #189, #49, .T. ) ;
#126 = ORIENTED_EDGE ( 'NONE', *, *, #155, .F. ) ;
#127 = CARTESIAN_POINT ( 'NONE',  ( 6.349999999999644373, 7.776507174585475226E-16, 6.000000000000005329 ) ) ;
#128 = ORIENTED_EDGE ( 'NONE', *, *, #125, .T. ) ;
#129 = FACE_OUTER_BOUND ( 'NONE', #98, .T. ) ;
#130 = UNCERTAINTY_MEASURE_WITH_UNIT (LENGTH_MEASURE( 1.000000000000000082E-05 ), #133, 'distance_accuracy_value', 'NONE');
#131 = CARTESIAN_POINT ( 'NONE',  ( -6.349999999999999645, 0.000000000000000000, 6.000000000000000000 ) ) ;
#132 = APPROVAL_ROLE ( '' ) ;
#133 =( LENGTH_UNIT ( ) NAMED_UNIT ( * ) SI_UNIT ( .MILLI., .METRE. ) );
#134 = CIRCLE ( 'NONE', #171, 6.349999999999617728 ) ;
#135 = DIRECTION ( 'NONE',  ( -0.000000000000000000, -0.000000000000000000, -1.000000000000000000 ) ) ;
#136 = ADVANCED_FACE ( 'NONE', ( #63 ), #80, .T. ) ;
#137 = DIRECTION ( 'NONE',  ( 1.000000000000000000, 0.000000000000000000, 0.000000000000000000 ) ) ;
#138 = EDGE_LOOP ( 'NONE', ( #15, #187, #95 ) ) ;
#139 = CC_DESIGN_PERSON_AND_ORGANIZATION_ASSIGNMENT ( #97, #9, ( #152 ) ) ;
#140 = DATE_TIME_ROLE ( 'creation_date' ) ;
#141 = DIRECTION ( 'NONE',  ( 0.000000000000000000, 0.000000000000000000, 1.000000000000000000 ) ) ;
#142 = PERSON_AND_ORGANIZATION ( #96, #21 ) ;
#143 = ADVANCED_FACE ( 'NONE', ( #8 ), #162, .T. ) ;
#144 = DIRECTION ( 'NONE',  ( 0.000000000000000000, 1.000000000000000000, -0.000000000000000000 ) ) ;
#145 = DATE_AND_TIME ( #161, #183 ) ;
#146 = AXIS2_PLACEMENT_3D ( 'NONE', #94, #141, #62 ) ;
#147 = PERSON_AND_ORGANIZATION ( #96, #21 ) ;
#148 =( GEOMETRIC_REPRESENTATION_CONTEXT ( 3 ) GLOBAL_UNCERTAINTY_ASSIGNED_CONTEXT ( ( #130 ) ) GLOBAL_UNIT_ASSIGNED_CONTEXT ( ( #133, #120, #177 ) ) REPRESENTATION_CONTEXT ( 'NONE', 'WORKASPACE' ) );
#149 = VECTOR ( 'NONE', #135, 1000.000000000000000 ) ;
#150 = EDGE_CURVE ( 'NONE', #54, #16, #91, .T. ) ;
#151 = VERTEX_POINT ( 'NONE', #38 ) ;
#152 = PRODUCT ( '010-1108T6_UVFS_PCV_window', '010-1108T6_UVFS_PCV_window', '', ( #39 ) ) ;
#153 = ORIENTED_EDGE ( 'NONE', *, *, #125, .F. ) ;
#154 = ORIENTED_EDGE ( 'NONE', *, *, #150, .T. ) ;
#155 = EDGE_CURVE ( 'NONE', #107, #16, #121, .T. ) ;
#156 = DATE_AND_TIME ( #115, #110 ) ;
#157 = PLANE ( 'NONE',  #146 ) ;
#158 = PERSON_AND_ORGANIZATION_ROLE ( 'design_supplier' ) ;
#159 = SPHERICAL_SURFACE ( 'NONE', #32, 200.0000000000000000 ) ;
#160 = DESIGN_CONTEXT ( 'detailed design', #100, 'design' ) ;
#161 = CALENDAR_DATE ( 2021, 25, 2 ) ;
#162 = CYLINDRICAL_SURFACE ( 'NONE', #105, 6.349999999999999645 ) ;
#163 = LOCAL_TIME ( 12, 33, 44.00000000000000000, #59 ) ;
#164 = APPROVAL_DATE_TIME ( #103, #192 ) ;
#165 = DIRECTION ( 'NONE',  ( 1.000000000000000000, 1.224646799147353207E-16, 0.000000000000000000 ) ) ;
#166 = PERSON_AND_ORGANIZATION ( #96, #21 ) ;
#167 = AXIS2_PLACEMENT_3D ( 'NONE', #1, #113, #172 ) ;
#168 = APPROVAL ( #85, 'UNSPECIFIED' ) ;
#169 = CARTESIAN_POINT ( 'NONE',  ( 0.000000000000000000, 0.000000000000000000, 0.000000000000000000 ) ) ;
#170 = LINE ( 'NONE', #69, #149 ) ;
#171 = AXIS2_PLACEMENT_3D ( 'NONE', #112, #124, #13 ) ;
#172 = DIRECTION ( 'NONE',  ( -1.000000000000000000, 0.000000000000000000, 0.000000000000000000 ) ) ;
#173 = SHAPE_DEFINITION_REPRESENTATION ( #67, #106 ) ;
#174 = DIRECTION ( 'NONE',  ( -0.000000000000000000, -0.000000000000000000, -1.000000000000000000 ) ) ;
#175 = DIRECTION ( 'NONE',  ( 1.000000000000000000, 0.000000000000000000, 0.000000000000000000 ) ) ;
#176 = DATE_AND_TIME ( #99, #163 ) ;
#177 =( NAMED_UNIT ( * ) SI_UNIT ( $, .STERADIAN. ) SOLID_ANGLE_UNIT ( ) );
#178 = LOCAL_TIME ( 12, 33, 44.00000000000000000, #55 ) ;
#179 = APPROVAL_ROLE ( '' ) ;
#180 = PRODUCT_RELATED_PRODUCT_CATEGORY ( 'detail', '', ( #152 ) ) ;
#181 = AXIS2_PLACEMENT_3D ( 'NONE', #191, #174, #117 ) ;
#182 = CC_DESIGN_PERSON_AND_ORGANIZATION_ASSIGNMENT ( #101, #73, ( #6 ) ) ;
#183 = LOCAL_TIME ( 12, 33, 44.00000000000000000, #24 ) ;
#184 = DIRECTION ( 'NONE',  ( 0.000000000000000000, -1.000000000000000000, -0.000000000000000000 ) ) ;
#185 = ORIENTED_EDGE ( 'NONE', *, *, #109, .T. ) ;
#186 = CC_DESIGN_DATE_AND_TIME_ASSIGNMENT ( #176, #140, ( #199 ) ) ;
#187 = ORIENTED_EDGE ( 'NONE', *, *, #155, .T. ) ;
#188 = COORDINATED_UNIVERSAL_TIME_OFFSET ( 2, 0, .AHEAD. ) ;
#189 = VERTEX_POINT ( 'NONE', #7 ) ;
#190 = DATE_TIME_ROLE ( 'classification_date' ) ;
#191 = CARTESIAN_POINT ( 'NONE',  ( 2.602085213965210642E-14, 0.000000000000000000, 6.000000000000005329 ) ) ;
#192 = APPROVAL ( #88, 'UNSPECIFIED' ) ;
#193 = PERSON_AND_ORGANIZATION_ROLE ( 'creator' ) ;
#194 = LINE ( 'NONE', #131, #29 ) ;
#195 = CARTESIAN_POINT ( 'NONE',  ( 0.000000000000000000, 0.000000000000000000, 0.000000000000000000 ) ) ;
#196 = EDGE_CURVE ( 'NONE', #107, #189, #194, .T. ) ;
#197 = CC_DESIGN_APPROVAL ( #192, ( #46 ) ) ;
#198 = AXIS2_PLACEMENT_3D ( 'NONE', #30, #93, #201 ) ;
#199 = PRODUCT_DEFINITION ( 'UNKNOWN', '', #46, #160 ) ;
#200 = DIRECTION ( 'NONE',  ( 1.000000000000000000, 0.000000000000000000, 0.000000000000000000 ) ) ;
#201 = DIRECTION ( 'NONE',  ( 1.000000000000000000, 0.000000000000000000, 0.000000000000000000 ) ) ;
ENDSEC;
END-ISO-10303-21;
