ISO-10303-21;
HEADER;
FILE_DESCRIPTION (( 'STEP AP203' ),
    '1' );
FILE_NAME ('010-1108E_UVFS_PCV_window.STEP',
    '2021-02-25T08:33:23',
    ( '' ),
    ( '' ),
    'SwSTEP 2.0',
    'SolidWorks 2019',
    '' );
FILE_SCHEMA (( 'CONFIG_CONTROL_DESIGN' ));
ENDSEC;

DATA;
#1 = CC_DESIGN_PERSON_AND_ORGANIZATION_ASSIGNMENT ( #108, #119, ( #140 ) ) ;
#2 = AXIS2_PLACEMENT_3D ( 'NONE', #16, #77, #126 ) ;
#3 = PERSON_AND_ORGANIZATION ( #87, #167 ) ;
#4 = ORIENTED_EDGE ( 'NONE', *, *, #18, .F. ) ;
#5 = CARTESIAN_POINT ( 'NONE',  ( 3.826732013112563385E-14, 0.000000000000000000, 2.899168332437057849 ) ) ;
#6 = COORDINATED_UNIVERSAL_TIME_OFFSET ( 2, 0, .AHEAD. ) ;
#7 = CALENDAR_DATE ( 2021, 25, 2 ) ;
#8 = ORIENTED_EDGE ( 'NONE', *, *, #172, .F. ) ;
#9 = APPROVAL_STATUS ( 'not_yet_approved' ) ;
#10 = CC_DESIGN_DATE_AND_TIME_ASSIGNMENT ( #138, #101, ( #122 ) ) ;
#11 = EDGE_LOOP ( 'NONE', ( #4, #190, #81 ) ) ;
#12 = ORIENTED_EDGE ( 'NONE', *, *, #43, .F. ) ;
#13 = DIRECTION ( 'NONE',  ( 0.000000000000000000, -1.000000000000000000, -0.000000000000000000 ) ) ;
#14 = PERSON_AND_ORGANIZATION_ROLE ( 'classification_officer' ) ;
#15 = DIRECTION ( 'NONE',  ( 1.224646799147353207E-16, -1.000000000000000000, 0.000000000000000000 ) ) ;
#16 = CARTESIAN_POINT ( 'NONE',  ( 2.602085213965210642E-14, 0.000000000000000000, 3.000000000000002665 ) ) ;
#17 = CC_DESIGN_APPROVAL ( #50, ( #111 ) ) ;
#18 = EDGE_CURVE ( 'NONE', #97, #107, #53, .T. ) ;
#19 = EDGE_LOOP ( 'NONE', ( #8, #66, #121, #146 ) ) ;
#20 = ORIENTED_EDGE ( 'NONE', *, *, #78, .F. ) ;
#21 = EDGE_CURVE ( 'NONE', #97, #52, #46, .T. ) ;
#22 = CARTESIAN_POINT ( 'NONE',  ( 0.000000000000000000, 0.000000000000000000, 0.000000000000000000 ) ) ;
#23 = DATE_AND_TIME ( #7, #179 ) ;
#24 = ORIENTED_EDGE ( 'NONE', *, *, #18, .T. ) ;
#25 = DIRECTION ( 'NONE',  ( 0.000000000000000000, 0.000000000000000000, 1.000000000000000000 ) ) ;
#26 = CC_DESIGN_PERSON_AND_ORGANIZATION_ASSIGNMENT ( #3, #165, ( #111 ) ) ;
#27 = PERSON_AND_ORGANIZATION ( #87, #167 ) ;
#28 = AXIS2_PLACEMENT_3D ( 'NONE', #54, #153, #180 ) ;
#29 = EDGE_CURVE ( 'NONE', #112, #52, #72, .T. ) ;
#30 = CARTESIAN_POINT ( 'NONE',  ( 0.000000000000000000, 0.000000000000000000, 0.000000000000000000 ) ) ;
#31 = DATE_TIME_ROLE ( 'classification_date' ) ;
#32 = CALENDAR_DATE ( 2021, 25, 2 ) ;
#33 = FACE_OUTER_BOUND ( 'NONE', #80, .T. ) ;
#34 = AXIS2_PLACEMENT_3D ( 'NONE', #159, #15, #67 ) ;
#35 = DIRECTION ( 'NONE',  ( 1.000000000000000000, 0.000000000000000000, 0.000000000000000000 ) ) ;
#36 = APPROVAL_PERSON_ORGANIZATION ( #123, #187, #158 ) ;
#37 = CYLINDRICAL_SURFACE ( 'NONE', #28, 6.349999999999999645 ) ;
#38 =( GEOMETRIC_REPRESENTATION_CONTEXT ( 3 ) GLOBAL_UNCERTAINTY_ASSIGNED_CONTEXT ( ( #147 ) ) GLOBAL_UNIT_ASSIGNED_CONTEXT ( ( #136, #139, #41 ) ) REPRESENTATION_CONTEXT ( 'NONE', 'WORKASPACE' ) );
#39 = PLANE ( 'NONE',  #82 ) ;
#40 = CALENDAR_DATE ( 2021, 25, 2 ) ;
#41 =( NAMED_UNIT ( * ) SI_UNIT ( $, .STERADIAN. ) SOLID_ANGLE_UNIT ( ) );
#42 = APPROVAL_STATUS ( 'not_yet_approved' ) ;
#43 = EDGE_CURVE ( 'NONE', #107, #97, #96, .T. ) ;
#44 = DIRECTION ( 'NONE',  ( 0.000000000000000000, 0.000000000000000000, 1.000000000000000000 ) ) ;
#45 = COORDINATED_UNIVERSAL_TIME_OFFSET ( 2, 0, .AHEAD. ) ;
#46 = LINE ( 'NONE', #198, #191 ) ;
#47 = EDGE_CURVE ( 'NONE', #107, #163, #113, .T. ) ;
#48 = CARTESIAN_POINT ( 'NONE',  ( 2.602085213965210642E-14, 0.000000000000000000, 202.8991683324370570 ) ) ;
#49 = AXIS2_PLACEMENT_3D ( 'NONE', #48, #199, #171 ) ;
#50 = APPROVAL ( #42, 'UNSPECIFIED' ) ;
#51 = CC_DESIGN_APPROVAL ( #187, ( #137 ) ) ;
#52 = VERTEX_POINT ( 'NONE', #145 ) ;
#53 = CIRCLE ( 'NONE', #128, 6.349999999999617728 ) ;
#54 = CARTESIAN_POINT ( 'NONE',  ( 0.000000000000000000, 0.000000000000000000, 3.000000000000000000 ) ) ;
#55 = CYLINDRICAL_SURFACE ( 'NONE', #125, 6.349999999999999645 ) ;
#56 = FACE_OUTER_BOUND ( 'NONE', #132, .T. ) ;
#57 = ADVANCED_FACE ( 'NONE', ( #33 ), #95, .F. ) ;
#58 = AXIS2_PLACEMENT_3D ( 'NONE', #104, #88, #90 ) ;
#59 = MECHANICAL_CONTEXT ( 'NONE', #169, 'mechanical' ) ;
#60 = APPROVAL_ROLE ( '' ) ;
#61 = ADVANCED_FACE ( 'NONE', ( #200 ), #127, .F. ) ;
#62 = APPROVAL_ROLE ( '' ) ;
#63 = AXIS2_PLACEMENT_3D ( 'NONE', #30, #44, #110 ) ;
#64 = DATE_AND_TIME ( #93, #156 ) ;
#65 = CC_DESIGN_APPROVAL ( #99, ( #122 ) ) ;
#66 = ORIENTED_EDGE ( 'NONE', *, *, #43, .T. ) ;
#67 = DIRECTION ( 'NONE',  ( 1.000000000000000000, 1.224646799147353207E-16, 0.000000000000000000 ) ) ;
#68 = PERSON_AND_ORGANIZATION ( #87, #167 ) ;
#69 = FACE_OUTER_BOUND ( 'NONE', #162, .T. ) ;
#70 = PERSON_AND_ORGANIZATION_ROLE ( 'design_supplier' ) ;
#71 = PERSON_AND_ORGANIZATION ( #87, #167 ) ;
#72 = CIRCLE ( 'NONE', #63, 6.349999999999999645 ) ;
#73 = APPROVAL_DATE_TIME ( #178, #99 ) ;
#74 = ORIENTED_EDGE ( 'NONE', *, *, #94, .F. ) ;
#75 = DIRECTION ( 'NONE',  ( 1.000000000000000000, 0.000000000000000000, 0.000000000000000000 ) ) ;
#76 = DIRECTION ( 'NONE',  ( 1.000000000000000000, 0.000000000000000000, 0.000000000000000000 ) ) ;
#77 = DIRECTION ( 'NONE',  ( -0.000000000000000000, -0.000000000000000000, -1.000000000000000000 ) ) ;
#78 = EDGE_CURVE ( 'NONE', #97, #163, #141, .T. ) ;
#79 = AXIS2_PLACEMENT_3D ( 'NONE', #176, #174, #35 ) ;
#80 = EDGE_LOOP ( 'NONE', ( #20, #12, #168 ) ) ;
#81 = ORIENTED_EDGE ( 'NONE', *, *, #47, .F. ) ;
#82 = AXIS2_PLACEMENT_3D ( 'NONE', #103, #117, #86 ) ;
#83 = ORIENTED_EDGE ( 'NONE', *, *, #172, .T. ) ;
#84 = CARTESIAN_POINT ( 'NONE',  ( 6.349999999999999645, 7.776507174585692163E-16, 0.000000000000000000 ) ) ;
#85 = FACE_OUTER_BOUND ( 'NONE', #19, .T. ) ;
#86 = DIRECTION ( 'NONE',  ( 1.000000000000000000, 0.000000000000000000, -0.000000000000000000 ) ) ;
#87 = PERSON ( 'UNSPECIFIED', 'UNSPECIFIED', 'UNSPECIFIED', ('UNSPECIFIED'), ('UNSPECIFIED'), ('UNSPECIFIED') ) ;
#88 = DIRECTION ( 'NONE',  ( 0.000000000000000000, 0.000000000000000000, 1.000000000000000000 ) ) ;
#89 = APPLICATION_CONTEXT ( 'configuration controlled 3d designs of mechanical parts and assemblies' ) ;
#90 = DIRECTION ( 'NONE',  ( 1.000000000000000000, 0.000000000000000000, 0.000000000000000000 ) ) ;
#91 = LOCAL_TIME ( 10, 33, 23.00000000000000000, #45 ) ;
#92 = DIRECTION ( 'NONE',  ( -0.000000000000000000, -0.000000000000000000, -1.000000000000000000 ) ) ;
#93 = CALENDAR_DATE ( 2021, 25, 2 ) ;
#94 = EDGE_CURVE ( 'NONE', #52, #112, #151, .T. ) ;
#95 = SPHERICAL_SURFACE ( 'NONE', #120, 200.0000000000000000 ) ;
#96 = CIRCLE ( 'NONE', #2, 6.349999999999617728 ) ;
#97 = VERTEX_POINT ( 'NONE', #150 ) ;
#98 = ORIENTED_EDGE ( 'NONE', *, *, #29, .T. ) ;
#99 = APPROVAL ( #9, 'UNSPECIFIED' ) ;
#100 = CARTESIAN_POINT ( 'NONE',  ( 6.349999999999644373, 7.776507174585475226E-16, 3.000000000000002665 ) ) ;
#101 = DATE_TIME_ROLE ( 'creation_date' ) ;
#102 = LOCAL_TIME ( 10, 33, 23.00000000000000000, #195 ) ;
#103 = CARTESIAN_POINT ( 'NONE',  ( 0.000000000000000000, 0.000000000000000000, 0.000000000000000000 ) ) ;
#104 = CARTESIAN_POINT ( 'NONE',  ( 0.000000000000000000, 0.000000000000000000, 0.000000000000000000 ) ) ;
#105 = CC_DESIGN_PERSON_AND_ORGANIZATION_ASSIGNMENT ( #71, #14, ( #137 ) ) ;
#106 = LOCAL_TIME ( 10, 33, 23.00000000000000000, #6 ) ;
#107 = VERTEX_POINT ( 'NONE', #100 ) ;
#108 = PERSON_AND_ORGANIZATION ( #87, #167 ) ;
#109 = CC_DESIGN_PERSON_AND_ORGANIZATION_ASSIGNMENT ( #183, #116, ( #122 ) ) ;
#110 = DIRECTION ( 'NONE',  ( 1.000000000000000000, 0.000000000000000000, 0.000000000000000000 ) ) ;
#111 = PRODUCT_DEFINITION_FORMATION_WITH_SPECIFIED_SOURCE ( 'ANY', '', #140, .NOT_KNOWN. ) ;
#112 = VERTEX_POINT ( 'NONE', #84 ) ;
#113 = CIRCLE ( 'NONE', #49, 200.0000000000000284 ) ;
#114 = LINE ( 'NONE', #135, #175 ) ;
#115 = DIRECTION ( 'NONE',  ( -1.000000000000000000, 0.000000000000000000, 0.000000000000000000 ) ) ;
#116 = PERSON_AND_ORGANIZATION_ROLE ( 'creator' ) ;
#117 = DIRECTION ( 'NONE',  ( 0.000000000000000000, 0.000000000000000000, 1.000000000000000000 ) ) ;
#118 = PRODUCT_RELATED_PRODUCT_CATEGORY ( 'detail', '', ( #140 ) ) ;
#119 = PERSON_AND_ORGANIZATION_ROLE ( 'design_owner' ) ;
#120 = AXIS2_PLACEMENT_3D ( 'NONE', #161, #13, #76 ) ;
#121 = ORIENTED_EDGE ( 'NONE', *, *, #21, .T. ) ;
#122 = PRODUCT_DEFINITION ( 'UNKNOWN', '', #111, #131 ) ;
#123 = PERSON_AND_ORGANIZATION ( #87, #167 ) ;
#124 = COORDINATED_UNIVERSAL_TIME_OFFSET ( 2, 0, .AHEAD. ) ;
#125 = AXIS2_PLACEMENT_3D ( 'NONE', #193, #177, #115 ) ;
#126 = DIRECTION ( 'NONE',  ( 1.000000000000000000, 0.000000000000000000, 0.000000000000000000 ) ) ;
#127 = SPHERICAL_SURFACE ( 'NONE', #79, 200.0000000000000000 ) ;
#128 = AXIS2_PLACEMENT_3D ( 'NONE', #185, #92, #75 ) ;
#129 = ADVANCED_FACE ( 'NONE', ( #69 ), #55, .T. ) ;
#130 = ORIENTED_EDGE ( 'NONE', *, *, #21, .F. ) ;
#131 = DESIGN_CONTEXT ( 'detailed design', #89, 'design' ) ;
#132 = EDGE_LOOP ( 'NONE', ( #74, #149 ) ) ;
#133 = CC_DESIGN_SECURITY_CLASSIFICATION ( #137, ( #111 ) ) ;
#134 = DIRECTION ( 'NONE',  ( 1.000000000000000000, 0.000000000000000000, 0.000000000000000000 ) ) ;
#135 = CARTESIAN_POINT ( 'NONE',  ( 6.349999999999999645, 7.776507174585692163E-16, 3.000000000000000000 ) ) ;
#136 =( LENGTH_UNIT ( ) NAMED_UNIT ( * ) SI_UNIT ( .MILLI., .METRE. ) );
#137 = SECURITY_CLASSIFICATION ( '', '', #181 ) ;
#138 = DATE_AND_TIME ( #154, #106 ) ;
#139 =( NAMED_UNIT ( * ) PLANE_ANGLE_UNIT ( ) SI_UNIT ( $, .RADIAN. ) );
#140 = PRODUCT ( '010-1108E_UVFS_PCV_window', '010-1108E_UVFS_PCV_window', '', ( #59 ) ) ;
#141 = CIRCLE ( 'NONE', #34, 200.0000000000000000 ) ;
#142 = APPROVAL_PERSON_ORGANIZATION ( #196, #50, #60 ) ;
#143 = SHAPE_DEFINITION_REPRESENTATION ( #192, #173 ) ;
#144 = ADVANCED_FACE ( 'NONE', ( #85 ), #37, .T. ) ;
#145 = CARTESIAN_POINT ( 'NONE',  ( -6.349999999999999645, 0.000000000000000000, 0.000000000000000000 ) ) ;
#146 = ORIENTED_EDGE ( 'NONE', *, *, #94, .T. ) ;
#147 = UNCERTAINTY_MEASURE_WITH_UNIT (LENGTH_MEASURE( 1.000000000000000082E-05 ), #136, 'distance_accuracy_value', 'NONE');
#148 = MANIFOLD_SOLID_BREP ( 'Cut-Revolve1', #201 ) ;
#149 = ORIENTED_EDGE ( 'NONE', *, *, #29, .F. ) ;
#150 = CARTESIAN_POINT ( 'NONE',  ( -6.349999999999591971, 0.000000000000000000, 3.000000000000002665 ) ) ;
#151 = CIRCLE ( 'NONE', #164, 6.349999999999999645 ) ;
#152 = APPROVAL_DATE_TIME ( #23, #50 ) ;
#153 = DIRECTION ( 'NONE',  ( -0.000000000000000000, -0.000000000000000000, -1.000000000000000000 ) ) ;
#154 = CALENDAR_DATE ( 2021, 25, 2 ) ;
#155 = APPLICATION_PROTOCOL_DEFINITION ( 'international standard', 'config_control_design', 1994, #169 ) ;
#156 = LOCAL_TIME ( 10, 33, 23.00000000000000000, #124 ) ;
#157 = APPROVAL_STATUS ( 'not_yet_approved' ) ;
#158 = APPROVAL_ROLE ( '' ) ;
#159 = CARTESIAN_POINT ( 'NONE',  ( 2.602085213965210642E-14, 0.000000000000000000, 202.8991683324370570 ) ) ;
#160 = CC_DESIGN_DATE_AND_TIME_ASSIGNMENT ( #197, #31, ( #137 ) ) ;
#161 = CARTESIAN_POINT ( 'NONE',  ( 2.602085213965210642E-14, 0.000000000000000000, 202.8991683324370570 ) ) ;
#162 = EDGE_LOOP ( 'NONE', ( #24, #83, #98, #130 ) ) ;
#163 = VERTEX_POINT ( 'NONE', #5 ) ;
#164 = AXIS2_PLACEMENT_3D ( 'NONE', #22, #25, #134 ) ;
#165 = PERSON_AND_ORGANIZATION_ROLE ( 'creator' ) ;
#166 = APPLICATION_PROTOCOL_DEFINITION ( 'international standard', 'config_control_design', 1994, #89 ) ;
#167 = ORGANIZATION ( 'UNSPECIFIED', 'UNSPECIFIED', '' ) ;
#168 = ORIENTED_EDGE ( 'NONE', *, *, #47, .T. ) ;
#169 = APPLICATION_CONTEXT ( 'configuration controlled 3d designs of mechanical parts and assemblies' ) ;
#170 = DIRECTION ( 'NONE',  ( -0.000000000000000000, -0.000000000000000000, -1.000000000000000000 ) ) ;
#171 = DIRECTION ( 'NONE',  ( 0.000000000000000000, 0.000000000000000000, 1.000000000000000000 ) ) ;
#172 = EDGE_CURVE ( 'NONE', #107, #112, #114, .T. ) ;
#173 = ADVANCED_BREP_SHAPE_REPRESENTATION ( '010-1108E_UVFS_PCV_window', ( #148, #58 ), #38 ) ;
#174 = DIRECTION ( 'NONE',  ( 0.000000000000000000, -1.000000000000000000, -0.000000000000000000 ) ) ;
#175 = VECTOR ( 'NONE', #194, 1000.000000000000000 ) ;
#176 = CARTESIAN_POINT ( 'NONE',  ( 2.602085213965210642E-14, 0.000000000000000000, 202.8991683324370570 ) ) ;
#177 = DIRECTION ( 'NONE',  ( -0.000000000000000000, -0.000000000000000000, -1.000000000000000000 ) ) ;
#178 = DATE_AND_TIME ( #40, #102 ) ;
#179 = LOCAL_TIME ( 10, 33, 23.00000000000000000, #182 ) ;
#180 = DIRECTION ( 'NONE',  ( -1.000000000000000000, 0.000000000000000000, 0.000000000000000000 ) ) ;
#181 = SECURITY_CLASSIFICATION_LEVEL ( 'unclassified' ) ;
#182 = COORDINATED_UNIVERSAL_TIME_OFFSET ( 2, 0, .AHEAD. ) ;
#183 = PERSON_AND_ORGANIZATION ( #87, #167 ) ;
#184 = ADVANCED_FACE ( 'NONE', ( #56 ), #39, .F. ) ;
#185 = CARTESIAN_POINT ( 'NONE',  ( 2.602085213965210642E-14, 0.000000000000000000, 3.000000000000002665 ) ) ;
#186 = APPROVAL_DATE_TIME ( #64, #187 ) ;
#187 = APPROVAL ( #157, 'UNSPECIFIED' ) ;
#188 = APPROVAL_PERSON_ORGANIZATION ( #27, #99, #62 ) ;
#189 = CC_DESIGN_PERSON_AND_ORGANIZATION_ASSIGNMENT ( #68, #70, ( #111 ) ) ;
#190 = ORIENTED_EDGE ( 'NONE', *, *, #78, .T. ) ;
#191 = VECTOR ( 'NONE', #170, 1000.000000000000000 ) ;
#192 = PRODUCT_DEFINITION_SHAPE ( 'NONE', 'NONE',  #122 ) ;
#193 = CARTESIAN_POINT ( 'NONE',  ( 0.000000000000000000, 0.000000000000000000, 3.000000000000000000 ) ) ;
#194 = DIRECTION ( 'NONE',  ( -0.000000000000000000, -0.000000000000000000, -1.000000000000000000 ) ) ;
#195 = COORDINATED_UNIVERSAL_TIME_OFFSET ( 2, 0, .AHEAD. ) ;
#196 = PERSON_AND_ORGANIZATION ( #87, #167 ) ;
#197 = DATE_AND_TIME ( #32, #91 ) ;
#198 = CARTESIAN_POINT ( 'NONE',  ( -6.349999999999999645, 0.000000000000000000, 3.000000000000000000 ) ) ;
#199 = DIRECTION ( 'NONE',  ( 0.000000000000000000, 1.000000000000000000, -0.000000000000000000 ) ) ;
#200 = FACE_OUTER_BOUND ( 'NONE', #11, .T. ) ;
#201 = CLOSED_SHELL ( 'NONE', ( #61, #129, #144, #184, #57 ) ) ;
ENDSEC;
END-ISO-10303-21;
