ISO-10303-21;
HEADER;
FILE_DESCRIPTION (( 'STEP AP203' ),
    '1' );
FILE_NAME ('010-1107T6_UVFS_PCV_window.STEP',
    '2021-02-25T10:33:19',
    ( '' ),
    ( '' ),
    'SwSTEP 2.0',
    'SolidWorks 2019',
    '' );
FILE_SCHEMA (( 'CONFIG_CONTROL_DESIGN' ));
ENDSEC;

DATA;
#1 =( NAMED_UNIT ( * ) SI_UNIT ( $, .STERADIAN. ) SOLID_ANGLE_UNIT ( ) );
#2 = PERSON ( 'UNSPECIFIED', 'UNSPECIFIED', 'UNSPECIFIED', ('UNSPECIFIED'), ('UNSPECIFIED'), ('UNSPECIFIED') ) ;
#3 = DIRECTION ( 'NONE',  ( 1.000000000000000000, 0.000000000000000000, 0.000000000000000000 ) ) ;
#4 = CC_DESIGN_DATE_AND_TIME_ASSIGNMENT ( #93, #21, ( #27 ) ) ;
#5 = AXIS2_PLACEMENT_3D ( 'NONE', #145, #137, #99 ) ;
#6 = APPROVAL_STATUS ( 'not_yet_approved' ) ;
#7 = ORIENTED_EDGE ( 'NONE', *, *, #171, .T. ) ;
#8 = VERTEX_POINT ( 'NONE', #28 ) ;
#9 = VERTEX_POINT ( 'NONE', #11 ) ;
#10 = LOCAL_TIME ( 12, 33, 19.00000000000000000, #46 ) ;
#11 = CARTESIAN_POINT ( 'NONE',  ( -6.349999999999999645, 0.000000000000000000, 0.000000000000000000 ) ) ;
#12 = CYLINDRICAL_SURFACE ( 'NONE', #48, 6.349999999999999645 ) ;
#13 = PERSON_AND_ORGANIZATION_ROLE ( 'creator' ) ;
#14 = CARTESIAN_POINT ( 'NONE',  ( 1.994931997373328159E-14, 0.000000000000000000, 155.8655313939799782 ) ) ;
#15 = APPROVAL_ROLE ( '' ) ;
#16 = DIRECTION ( 'NONE',  ( 1.000000000000000000, 0.000000000000000000, 0.000000000000000000 ) ) ;
#17 = CC_DESIGN_PERSON_AND_ORGANIZATION_ASSIGNMENT ( #201, #13, ( #90 ) ) ;
#18 = APPLICATION_CONTEXT ( 'configuration controlled 3d designs of mechanical parts and assemblies' ) ;
#19 = APPROVAL_PERSON_ORGANIZATION ( #191, #53, #125 ) ;
#20 = CC_DESIGN_PERSON_AND_ORGANIZATION_ASSIGNMENT ( #124, #188, ( #111 ) ) ;
#21 = DATE_TIME_ROLE ( 'creation_date' ) ;
#22 = VERTEX_POINT ( 'NONE', #75 ) ;
#23 = AXIS2_PLACEMENT_3D ( 'NONE', #35, #80, #3 ) ;
#24 = APPROVAL_ROLE ( '' ) ;
#25 = PRODUCT_RELATED_PRODUCT_CATEGORY ( 'detail', '', ( #111 ) ) ;
#26 = LINE ( 'NONE', #196, #154 ) ;
#27 = PRODUCT_DEFINITION ( 'UNKNOWN', '', #90, #153 ) ;
#28 = CARTESIAN_POINT ( 'NONE',  ( 6.349999999999910827, 7.776507174585638915E-16, 6.000000000000005329 ) ) ;
#29 = FACE_OUTER_BOUND ( 'NONE', #128, .T. ) ;
#30 = CARTESIAN_POINT ( 'NONE',  ( -6.349999999999871747, 0.000000000000000000, 6.000000000000005329 ) ) ;
#31 = MANIFOLD_SOLID_BREP ( 'Cut-Revolve1', #136 ) ;
#32 = CIRCLE ( 'NONE', #5, 6.349999999999891287 ) ;
#33 = PERSON_AND_ORGANIZATION_ROLE ( 'design_supplier' ) ;
#34 = CARTESIAN_POINT ( 'NONE',  ( 0.000000000000000000, 0.000000000000000000, 0.000000000000000000 ) ) ;
#35 = CARTESIAN_POINT ( 'NONE',  ( 0.000000000000000000, 0.000000000000000000, 0.000000000000000000 ) ) ;
#36 = CARTESIAN_POINT ( 'NONE',  ( 0.000000000000000000, 0.000000000000000000, 0.000000000000000000 ) ) ;
#37 = APPROVAL_DATE_TIME ( #67, #47 ) ;
#38 = APPROVAL_STATUS ( 'not_yet_approved' ) ;
#39 = CIRCLE ( 'NONE', #194, 150.0000000000000000 ) ;
#40 = ORIENTED_EDGE ( 'NONE', *, *, #77, .T. ) ;
#41 = EDGE_CURVE ( 'NONE', #8, #57, #32, .T. ) ;
#42 = DIRECTION ( 'NONE',  ( 0.000000000000000000, -1.000000000000000000, -0.000000000000000000 ) ) ;
#43 = VECTOR ( 'NONE', #161, 1000.000000000000000 ) ;
#44 = PERSON_AND_ORGANIZATION ( #2, #101 ) ;
#45 = CARTESIAN_POINT ( 'NONE',  ( 6.349999999999999645, 7.776507174585692163E-16, 0.000000000000000000 ) ) ;
#46 = COORDINATED_UNIVERSAL_TIME_OFFSET ( 2, 0, .AHEAD. ) ;
#47 = APPROVAL ( #6, 'UNSPECIFIED' ) ;
#48 = AXIS2_PLACEMENT_3D ( 'NONE', #76, #181, #134 ) ;
#49 = CYLINDRICAL_SURFACE ( 'NONE', #71, 6.349999999999999645 ) ;
#50 = PERSON_AND_ORGANIZATION ( #2, #101 ) ;
#51 = AXIS2_PLACEMENT_3D ( 'NONE', #178, #42, #98 ) ;
#52 = APPLICATION_PROTOCOL_DEFINITION ( 'international standard', 'config_control_design', 1994, #18 ) ;
#53 = APPROVAL ( #38, 'UNSPECIFIED' ) ;
#54 = LOCAL_TIME ( 12, 33, 19.00000000000000000, #142 ) ;
#55 = ORIENTED_EDGE ( 'NONE', *, *, #86, .F. ) ;
#56 = ADVANCED_FACE ( 'NONE', ( #72 ), #115, .F. ) ;
#57 = VERTEX_POINT ( 'NONE', #30 ) ;
#58 = DIRECTION ( 'NONE',  ( -0.000000000000000000, -0.000000000000000000, -1.000000000000000000 ) ) ;
#59 = DATE_TIME_ROLE ( 'classification_date' ) ;
#60 = CC_DESIGN_SECURITY_CLASSIFICATION ( #184, ( #90 ) ) ;
#61 = DIRECTION ( 'NONE',  ( 0.000000000000000000, 0.000000000000000000, 1.000000000000000000 ) ) ;
#62 = ADVANCED_FACE ( 'NONE', ( #29 ), #12, .T. ) ;
#63 = DIRECTION ( 'NONE',  ( 0.000000000000000000, -1.000000000000000000, -0.000000000000000000 ) ) ;
#64 = DIRECTION ( 'NONE',  ( 0.000000000000000000, 0.000000000000000000, 1.000000000000000000 ) ) ;
#65 = AXIS2_PLACEMENT_3D ( 'NONE', #36, #64, #88 ) ;
#66 = PERSON_AND_ORGANIZATION ( #2, #101 ) ;
#67 = DATE_AND_TIME ( #82, #54 ) ;
#68 = ORIENTED_EDGE ( 'NONE', *, *, #86, .T. ) ;
#69 = PRODUCT_DEFINITION_SHAPE ( 'NONE', 'NONE',  #27 ) ;
#70 = ORIENTED_EDGE ( 'NONE', *, *, #95, .F. ) ;
#71 = AXIS2_PLACEMENT_3D ( 'NONE', #100, #200, #168 ) ;
#72 = FACE_OUTER_BOUND ( 'NONE', #108, .T. ) ;
#73 = ADVANCED_BREP_SHAPE_REPRESENTATION ( '010-1107T6_UVFS_PCV_window', ( #31, #23 ), #74 ) ;
#74 =( GEOMETRIC_REPRESENTATION_CONTEXT ( 3 ) GLOBAL_UNCERTAINTY_ASSIGNED_CONTEXT ( ( #116 ) ) GLOBAL_UNIT_ASSIGNED_CONTEXT ( ( #78, #169, #1 ) ) REPRESENTATION_CONTEXT ( 'NONE', 'WORKASPACE' ) );
#75 = CARTESIAN_POINT ( 'NONE',  ( 2.913417096733843032E-14, 0.000000000000000000, 5.865531393979994235 ) ) ;
#76 = CARTESIAN_POINT ( 'NONE',  ( 0.000000000000000000, 0.000000000000000000, 6.000000000000000000 ) ) ;
#77 = EDGE_CURVE ( 'NONE', #57, #22, #39, .T. ) ;
#78 =( LENGTH_UNIT ( ) NAMED_UNIT ( * ) SI_UNIT ( .MILLI., .METRE. ) );
#79 = CIRCLE ( 'NONE', #97, 6.349999999999999645 ) ;
#80 = DIRECTION ( 'NONE',  ( 0.000000000000000000, 0.000000000000000000, 1.000000000000000000 ) ) ;
#81 = COORDINATED_UNIVERSAL_TIME_OFFSET ( 2, 0, .AHEAD. ) ;
#82 = CALENDAR_DATE ( 2021, 25, 2 ) ;
#83 = ORIENTED_EDGE ( 'NONE', *, *, #177, .F. ) ;
#84 = ORIENTED_EDGE ( 'NONE', *, *, #41, .T. ) ;
#85 = DIRECTION ( 'NONE',  ( 1.000000000000000000, 1.224646799147353207E-16, 0.000000000000000000 ) ) ;
#86 = EDGE_CURVE ( 'NONE', #57, #9, #119, .T. ) ;
#87 = FACE_OUTER_BOUND ( 'NONE', #130, .T. ) ;
#88 = DIRECTION ( 'NONE',  ( 1.000000000000000000, 0.000000000000000000, -0.000000000000000000 ) ) ;
#89 = APPROVAL ( #135, 'UNSPECIFIED' ) ;
#90 = PRODUCT_DEFINITION_FORMATION_WITH_SPECIFIED_SOURCE ( 'ANY', '', #111, .NOT_KNOWN. ) ;
#91 = CC_DESIGN_APPROVAL ( #89, ( #184 ) ) ;
#92 = MECHANICAL_CONTEXT ( 'NONE', #159, 'mechanical' ) ;
#93 = DATE_AND_TIME ( #144, #94 ) ;
#94 = LOCAL_TIME ( 12, 33, 19.00000000000000000, #81 ) ;
#95 = EDGE_CURVE ( 'NONE', #8, #22, #113, .T. ) ;
#96 = VERTEX_POINT ( 'NONE', #45 ) ;
#97 = AXIS2_PLACEMENT_3D ( 'NONE', #34, #105, #152 ) ;
#98 = DIRECTION ( 'NONE',  ( 1.000000000000000000, 0.000000000000000000, 0.000000000000000000 ) ) ;
#99 = DIRECTION ( 'NONE',  ( 1.000000000000000000, 0.000000000000000000, 0.000000000000000000 ) ) ;
#100 = CARTESIAN_POINT ( 'NONE',  ( 0.000000000000000000, 0.000000000000000000, 6.000000000000000000 ) ) ;
#101 = ORGANIZATION ( 'UNSPECIFIED', 'UNSPECIFIED', '' ) ;
#102 = DATE_AND_TIME ( #138, #118 ) ;
#103 = DIRECTION ( 'NONE',  ( -0.000000000000000000, -0.000000000000000000, -1.000000000000000000 ) ) ;
#104 = PERSON_AND_ORGANIZATION ( #2, #101 ) ;
#105 = DIRECTION ( 'NONE',  ( 0.000000000000000000, 0.000000000000000000, 1.000000000000000000 ) ) ;
#106 = APPLICATION_PROTOCOL_DEFINITION ( 'international standard', 'config_control_design', 1994, #159 ) ;
#107 = PERSON_AND_ORGANIZATION_ROLE ( 'creator' ) ;
#108 = EDGE_LOOP ( 'NONE', ( #109, #40, #70 ) ) ;
#109 = ORIENTED_EDGE ( 'NONE', *, *, #180, .F. ) ;
#110 = CC_DESIGN_PERSON_AND_ORGANIZATION_ASSIGNMENT ( #104, #33, ( #90 ) ) ;
#111 = PRODUCT ( '010-1107T6_UVFS_PCV_window', '010-1107T6_UVFS_PCV_window', '', ( #92 ) ) ;
#112 = ORIENTED_EDGE ( 'NONE', *, *, #171, .F. ) ;
#113 = CIRCLE ( 'NONE', #141, 150.0000000000000000 ) ;
#114 = CC_DESIGN_DATE_AND_TIME_ASSIGNMENT ( #166, #59, ( #184 ) ) ;
#115 = SPHERICAL_SURFACE ( 'NONE', #51, 150.0000000000000000 ) ;
#116 = UNCERTAINTY_MEASURE_WITH_UNIT (LENGTH_MEASURE( 1.000000000000000082E-05 ), #78, 'distance_accuracy_value', 'NONE');
#117 = PERSON_AND_ORGANIZATION_ROLE ( 'classification_officer' ) ;
#118 = LOCAL_TIME ( 12, 33, 19.00000000000000000, #133 ) ;
#119 = LINE ( 'NONE', #148, #43 ) ;
#120 = APPROVAL_DATE_TIME ( #126, #53 ) ;
#121 = CARTESIAN_POINT ( 'NONE',  ( 1.994931997373328159E-14, 0.000000000000000000, 155.8655313939799782 ) ) ;
#122 = APPROVAL_PERSON_ORGANIZATION ( #50, #89, #15 ) ;
#123 = EDGE_CURVE ( 'NONE', #8, #96, #26, .T. ) ;
#124 = PERSON_AND_ORGANIZATION ( #2, #101 ) ;
#125 = APPROVAL_ROLE ( '' ) ;
#126 = DATE_AND_TIME ( #189, #131 ) ;
#127 = ORIENTED_EDGE ( 'NONE', *, *, #177, .T. ) ;
#128 = EDGE_LOOP ( 'NONE', ( #195, #84, #68, #127 ) ) ;
#129 = CC_DESIGN_APPROVAL ( #47, ( #27 ) ) ;
#130 = EDGE_LOOP ( 'NONE', ( #146, #193, #7, #55 ) ) ;
#131 = LOCAL_TIME ( 12, 33, 19.00000000000000000, #172 ) ;
#132 = ORIENTED_EDGE ( 'NONE', *, *, #41, .F. ) ;
#133 = COORDINATED_UNIVERSAL_TIME_OFFSET ( 2, 0, .AHEAD. ) ;
#134 = DIRECTION ( 'NONE',  ( -1.000000000000000000, 0.000000000000000000, 0.000000000000000000 ) ) ;
#135 = APPROVAL_STATUS ( 'not_yet_approved' ) ;
#136 = CLOSED_SHELL ( 'NONE', ( #56, #190, #62, #163, #147 ) ) ;
#137 = DIRECTION ( 'NONE',  ( -0.000000000000000000, -0.000000000000000000, -1.000000000000000000 ) ) ;
#138 = CALENDAR_DATE ( 2021, 25, 2 ) ;
#139 = SECURITY_CLASSIFICATION_LEVEL ( 'unclassified' ) ;
#140 = DIRECTION ( 'NONE',  ( 1.000000000000000000, 0.000000000000000000, 0.000000000000000000 ) ) ;
#141 = AXIS2_PLACEMENT_3D ( 'NONE', #14, #199, #61 ) ;
#142 = COORDINATED_UNIVERSAL_TIME_OFFSET ( 2, 0, .AHEAD. ) ;
#143 = AXIS2_PLACEMENT_3D ( 'NONE', #156, #187, #185 ) ;
#144 = CALENDAR_DATE ( 2021, 25, 2 ) ;
#145 = CARTESIAN_POINT ( 'NONE',  ( 1.994931997373328159E-14, 0.000000000000000000, 6.000000000000005329 ) ) ;
#146 = ORIENTED_EDGE ( 'NONE', *, *, #180, .T. ) ;
#147 = ADVANCED_FACE ( 'NONE', ( #176 ), #151, .F. ) ;
#148 = CARTESIAN_POINT ( 'NONE',  ( -6.349999999999999645, 0.000000000000000000, 6.000000000000000000 ) ) ;
#149 = AXIS2_PLACEMENT_3D ( 'NONE', #121, #63, #140 ) ;
#150 = CC_DESIGN_PERSON_AND_ORGANIZATION_ASSIGNMENT ( #44, #117, ( #184 ) ) ;
#151 = SPHERICAL_SURFACE ( 'NONE', #149, 150.0000000000000000 ) ;
#152 = DIRECTION ( 'NONE',  ( 1.000000000000000000, 0.000000000000000000, 0.000000000000000000 ) ) ;
#153 = DESIGN_CONTEXT ( 'detailed design', #18, 'design' ) ;
#154 = VECTOR ( 'NONE', #58, 1000.000000000000000 ) ;
#155 = APPROVAL_PERSON_ORGANIZATION ( #170, #47, #24 ) ;
#156 = CARTESIAN_POINT ( 'NONE',  ( 0.000000000000000000, 0.000000000000000000, 0.000000000000000000 ) ) ;
#157 = CC_DESIGN_APPROVAL ( #53, ( #90 ) ) ;
#158 = EDGE_LOOP ( 'NONE', ( #173, #132, #192 ) ) ;
#159 = APPLICATION_CONTEXT ( 'configuration controlled 3d designs of mechanical parts and assemblies' ) ;
#160 = DIRECTION ( 'NONE',  ( 1.224646799147353207E-16, -1.000000000000000000, 0.000000000000000000 ) ) ;
#161 = DIRECTION ( 'NONE',  ( -0.000000000000000000, -0.000000000000000000, -1.000000000000000000 ) ) ;
#162 = CIRCLE ( 'NONE', #143, 6.349999999999999645 ) ;
#163 = ADVANCED_FACE ( 'NONE', ( #167 ), #183, .F. ) ;
#164 = CARTESIAN_POINT ( 'NONE',  ( 1.994931997373328159E-14, 0.000000000000000000, 155.8655313939799782 ) ) ;
#165 = CARTESIAN_POINT ( 'NONE',  ( 1.994931997373328159E-14, 0.000000000000000000, 6.000000000000005329 ) ) ;
#166 = DATE_AND_TIME ( #182, #10 ) ;
#167 = FACE_OUTER_BOUND ( 'NONE', #174, .T. ) ;
#168 = DIRECTION ( 'NONE',  ( -1.000000000000000000, 0.000000000000000000, 0.000000000000000000 ) ) ;
#169 =( NAMED_UNIT ( * ) PLANE_ANGLE_UNIT ( ) SI_UNIT ( $, .RADIAN. ) );
#170 = PERSON_AND_ORGANIZATION ( #2, #101 ) ;
#171 = EDGE_CURVE ( 'NONE', #96, #9, #162, .T. ) ;
#172 = COORDINATED_UNIVERSAL_TIME_OFFSET ( 2, 0, .AHEAD. ) ;
#173 = ORIENTED_EDGE ( 'NONE', *, *, #77, .F. ) ;
#174 = EDGE_LOOP ( 'NONE', ( #83, #112 ) ) ;
#175 = AXIS2_PLACEMENT_3D ( 'NONE', #165, #103, #16 ) ;
#176 = FACE_OUTER_BOUND ( 'NONE', #158, .T. ) ;
#177 = EDGE_CURVE ( 'NONE', #9, #96, #79, .T. ) ;
#178 = CARTESIAN_POINT ( 'NONE',  ( 1.994931997373328159E-14, 0.000000000000000000, 155.8655313939799782 ) ) ;
#179 = SHAPE_DEFINITION_REPRESENTATION ( #69, #73 ) ;
#180 = EDGE_CURVE ( 'NONE', #57, #8, #198, .T. ) ;
#181 = DIRECTION ( 'NONE',  ( -0.000000000000000000, -0.000000000000000000, -1.000000000000000000 ) ) ;
#182 = CALENDAR_DATE ( 2021, 25, 2 ) ;
#183 = PLANE ( 'NONE',  #65 ) ;
#184 = SECURITY_CLASSIFICATION ( '', '', #139 ) ;
#185 = DIRECTION ( 'NONE',  ( 1.000000000000000000, 0.000000000000000000, 0.000000000000000000 ) ) ;
#186 = CC_DESIGN_PERSON_AND_ORGANIZATION_ASSIGNMENT ( #66, #107, ( #27 ) ) ;
#187 = DIRECTION ( 'NONE',  ( 0.000000000000000000, 0.000000000000000000, 1.000000000000000000 ) ) ;
#188 = PERSON_AND_ORGANIZATION_ROLE ( 'design_owner' ) ;
#189 = CALENDAR_DATE ( 2021, 25, 2 ) ;
#190 = ADVANCED_FACE ( 'NONE', ( #87 ), #49, .T. ) ;
#191 = PERSON_AND_ORGANIZATION ( #2, #101 ) ;
#192 = ORIENTED_EDGE ( 'NONE', *, *, #95, .T. ) ;
#193 = ORIENTED_EDGE ( 'NONE', *, *, #123, .T. ) ;
#194 = AXIS2_PLACEMENT_3D ( 'NONE', #164, #160, #85 ) ;
#195 = ORIENTED_EDGE ( 'NONE', *, *, #123, .F. ) ;
#196 = CARTESIAN_POINT ( 'NONE',  ( 6.349999999999999645, 7.776507174585692163E-16, 6.000000000000000000 ) ) ;
#197 = APPROVAL_DATE_TIME ( #102, #89 ) ;
#198 = CIRCLE ( 'NONE', #175, 6.349999999999891287 ) ;
#199 = DIRECTION ( 'NONE',  ( 0.000000000000000000, 1.000000000000000000, -0.000000000000000000 ) ) ;
#200 = DIRECTION ( 'NONE',  ( -0.000000000000000000, -0.000000000000000000, -1.000000000000000000 ) ) ;
#201 = PERSON_AND_ORGANIZATION ( #2, #101 ) ;
ENDSEC;
END-ISO-10303-21;
